Milyonlarca şarkı, En sevdiğiniz Parçalar için Akorlar Alın, Birlikte Çalın
Guitar 1 (Electric)
e--------------------------------------------------------   
B--------------------------------------------------------
G--------------------------------------------------------
D-----------------9-7---5-7-------------------5-3--------
A----------3---7-------------------------3---------------
E--5--3-5----5--------------------5-3-5----5-3-----------

Guitar 2 (Acoustic)
e-0-0-0------0--0-0----0-0-0------1--------------------------------------   
B-1-1-1------1--1-1----1-1-1------1--------------------------------------
G-2-0-2----0-2--0-2----2-0-2----0-2--------------------------------------
D-2-2-2---2--2--2-2----2-2-2---2--3--------------------------------------
A-0-0-0--0---0--0-0----0-0-0--0---3--------------------------------------
E---------------------------------1--------------------------------------

Bass
G-------------4-2-----------------------------------------   
D-----------2-------5-7~----------------5-3------3-3------
A-------2-3---------------------------3------5-3----------
E-5--3-5-------------------5-3-5--5-3---------------------

Cm Cm7 Cm Cm Cm7 Cm G#
Cm Cm7 Cm Cm Cm7 Cm G#


Cm
Advertise in imaginative ways
                 Cm
Start your free trial today
        G#             Cm
Come on in the waters, lovely
                                                 Cm
Look you could meet someone you like during the meteor strike
      G#
It is that easy


[Pre-Chorus]
Cm
Lunar surface on a saturday day night
               Cm
Dressed up in silver and white with
         G#
Coloured old grey whistle test lights



Gm                   Cm
 Take it easy for a little while
          G#
Come and stay with us
     A#
It's such an easy flight
Gm                      Cm
Cute new places keep on popping up
          G#             A#
Since the exodus it's all getting gentrified
Gm               Cm                 G#maj7
I put a taqueria on the roof it was well reviewed
A#                Gm G#         Cm          Cm7 Cm Cm7 Cm G#
Four stars out of fiveee and thats unheard of



Cm
Bridge and tunnel on the starlight express
             Cm                    G#
The hero of special effects in my mind's eye
Cm
Hokey cokey with the opposite sex
                Cm
The things you try to forget
            G#
Doesn't time fly
Cm                                    Cm
I'm in no position to give advice, I don't want to be nice
         G#
And you know that, 


[Chorus 2]
Gm                   Cm
 Take it easy for a little while
          G#
Come and stay with us
     A#
It's such an easy flight
Gm                      Cm
Cute new places keep on popping up
          G#              A#
Since the exodus it's all getting gentrified
Gm                        Cm          G#
 The information action ratio is the place to go
         A#          Gm Cm     G#           A#
And you will not recognise the old headquarters



D#m                                         D#dim7
 All the nights that never happened and the days that don't exist
       A#          Fdim7         D#mD#m7
At the information action ratio
Em                                         Edim7
The only time that we stop laughing is to breathe or steal a kiss
      B               Cdim7                C#m C#madd6
I can get you on the list for all the clubs
       B           Cdim7          C#m C#madd6
I can lift you up another semitone


Fm                   
 Take it easy for a little while
D#          
 Come and stay with us
     G#            Fm
It's such an easy flight
D#                     
Cute new places keep on popping up 
          D#              G#            Fm
Since the exodus it's all getting gentrified
Fm                              D#
 The information action ratio is the place to go
G#                 Fm
Four stars out of five
Fm                   
 Take it easy for a little while
D#
Come and stay with us
      G#               Fm
Now, it’s such an easy flight
Fm
Cute new places keep on popping up
D#                      G#             Fm
Around Clavius, it’s all getting gentrified
Fm
I put a taqueria on the moon
D#
It got rave reviews
G#                 Fm
Four stars out of five


Fm
Take it easy for a little while
D#                 D#maj7
Come and stay with us
G#                Fm
Four stars out of five
Fm
Take it easy for a little while
D#                 D#maj7
Come and stay with us
G#                Fm
Four stars out of five
Fm
Take it easy for a little while
D#                 D#maj7
Come and stay with us
G#                Fm
Four stars out of five

Fm D#
G#
Four stars out of five

Am (Riff)
Four Out Of Five akoru , Four Out Of Five orjinal ton akor , Four Out Of Five kolay ton akoru
Bu içerik için hata bildir
Yorumlar
Üye girişi yapmanız gerekmektedir
Bilgiler
  • Ekleyen: devilmen,
  • Katkıda bulunanlar:
  • (Profil sayfanızdan akor gönderebilirsiniz)