Ata - Aşksız Olmaz - Akor ( Orjinal Ton Kolay )
Akorlar Mobil uygulamasını
Şimdi İndirin






Solo
 A# ||-----------------------------------------------------------------------|
 F ||-----------------------------------------------------------------------|
 C# ||---0---2---3---2-----0-----0---3---------0---2--0-------------2--------|
 G# ||------------------------4-------1--1---3--------------3-2--3------0--0-|
 D# ||-----------------------------------------------------------------------|
 A# ||-----------------------------------------------------------------------|
 
   
 
 A# ||------------------------------------------------------------------------|
 F ||------------------------------------------------------------------------|
 C# ||--------0----------------0-------------0--2----3--2--0----------0-------|
 G# ||--1--3-----3----1-0-1-----4-4----4-----------------------4--------------|
 D# ||------------------------------------------------------------------------|
 A# ||------------------------------------------------------------------------|
 
    Cm              Fm              A#
 Nerdesin bu yazdan  benle kalsan ya sevgilim çok mu zor  
         D#            G#            Fm                          G
 Benim olsan ya denizler askimiz seni ister bu yaz benim askim ol
 
       Cm                 Fm     )
 Neden bu hayir neden bu ihtiras  )
 A#               D#                )
 Bodrum sensiz olmaz bu yaz       )
   G#            Fm     G         )
 Halikarnas hep bizi özler        )
                   Cm            )
 Askim bu yaz bana gel            )
                                  )
 Cm             Fm               )
 Asksiz olmaz sensiz olmaz        ) 2                          
 A#                D#               )
 Bu yaz bodrum sensiz olmaz       )
 G#               Fm    G         )
 Asksiz olmaz sensiz olmaz        )
                        Cm       )
 Bodrum asksiz bodrum olmaz       )
                                  )
 Cm Fm A# D# G# Fm G Cm           )
 O-laylolay-lolay-lolay-lolay     )



Rastgele
Bu içerik için hata bildir



Bilgiler
  • Ekleyen: admin,
  • Katkıda bulunanlar:
  • (Profil sayfanızdan akor gönderebilirsiniz)
Yorumlar
Üye girişi yapmanız gerekmektedir