E-------------------------------------------------
B-----5-7--7-9-7-5--5-7-5-----5-----5-------------
G-6-7---------------------7-7---7-6---------------
D-------------------------------------------------
A-------------------------------------------------
E-------------------------------------------------

E-------------------------------------------------
B-----5--5-7-5------5-----------------------------
G-6-7----------7--7---7-6--6-7-6-4-7--------------
D-------------------------------------------------
A-------------------------------------------------
E-------------------------------------------------

E-------------------------------------------------
B---------5---------------------------------------
G-4-6-7-7---7-6--6-7-6-4--4-6-4-------------------
D-------------------------------7-----------------
A-------------------------------------------------
E-------------------------------------------------

E-------------------------------------------------
B-------------------------------------------------
G-6-6-6-7-6-4--4-6-4-----4------------------------
D--------------------7--7--7-6--------------------
A-------------------------------------------------
E-------------------------------------------------

E-------------------------------------------------
B-------------------------------------------------
G-4-4-4--4-6-4------4-----------------------------
D--------------7--7--7-6--6-7-6--4-4--------------
A-------------------------------------------------
E-------------------------------------------------
Bu içerik için hata bildir
Yorumlar
Üye girişi yapmanız gerekmektedir
Bilgiler
  • Ekleyen: admin,
  • Katkıda bulunanlar:
  • (Profil sayfanızdan akor gönderebilirsiniz)
Ayla çelik - Bağdat ( T ) - şarkı sözü
Hosting