>
Dm   C Am   G
sevdim sandım
Dm    C  Am     G
sevildim sanırdım
Bm A  G   Bm A
sonra uyandım
Bm A  F Em  Bm  A
sonunda ben anladım
 
Dm   C Am   G
ayrı kaldım
Dm   C  Am    G
ayıldım bayıldım
Bm A  G   Bm A
sonra uyandım
Bm A  F Em   Bm  A
sonunda ben anladım
 
E--------------------------
B--------------------------
G--------------------------
D--------------------------
A---5--7--5--3--5-5--3--5--
E--------------------------
 
   A            Bm
   öyle yürekten seviyorsan  
   A            Bm C         
   aklı başından atacaksın   
   A            Bm           [A]
   kimi yanında arıyorsan    
   A            Bm C         
   önce içinde bulacaksın    
 
Dm  C Am  G
aklım nerde
Dm  C Am  G
kaçırdım seninle
Bm A  G   Bm A
sorma ne halde
Bm A  F Em   Bm  A
sorulmaz bu kimseye
 
E--------------------------
B--------------------------
G--------------------------
D--------------------------
A---5--7--5--3--5-5--3--5--
E--------------------------
 
[A]tekrar
 
E------------------------------------------------------
B------------------------------------------------------
G------------------------------------------------------
D------------------------------------------------------
A-3--5--3--2--3--3--2--3---35--5--5--2--2--2--2--2----
E------------------------------------------------------
 
E------------------------------------------------------
B------------------------------------------------------
G------------------------------------------------------
D------------------------------------------------------
A-3--5--3--2--3--3--2--3---35--5--5--2--2--2--2--2----
E------------------------------------------------------
 
E------------------------------------------------------
B------------------------------------------------------
G------------------------------------------------------
D------------------------------------------------------
A-3--5--3--2--3--3--2--3---37--7--7--2--2--2--2--2----
E------------------------------------------------------
 
E------------------------------------------------------
B------------------------------------------------------
G------------------------------------------------------
D------------------------------------------------------
A-3--5--3--2--3--3--2--3---37--7--7--8--8--8--8--8----
E------------------------------------------------------
 
E------------------------------------------------------
B------------------------------------------------------
G------------------------------------------------------
D-777--9--7--5--7--7--5--7--79--9--9--5--5--5--5--5---
A------------------------------------------------------
E------------------------------------------------------
 
E------------------------------------------------------
B------------------------------------------------------
G------------------------------------------------------
D-777--9--7--5--7--7--5--7--79--9--9--5--5--5--5--5---
A------------------------------------------------------
E------------------------------------------------------
 
E-----------------------------------------------------------
B-----------------------------------------------------------
G-----------------------------------------------------------
D-777--9--7--5--7--7--5--7--9-7-9-10-9-10-12-10-12-14-12-14-
A-----------------------------------------------------------
E-----------------------------------------------------------
 
E------------------------------------------------------
B------------------------------------------------------
G------------------------------------------------------
D-15-15-15-15-15-15-15-15----14-14-14-14-14-14-14-14---
A------------------------------------------------------
E------------------------------------------------------
 
            Bend                         Bend
E------------------------------------------------------
B------------------------------------------------------
G------------------------------------------------------
D--1417-17-17-17-17-17-17--14-1417-17-17-17-17-17-17-
A------------------------------------------------------
E------------------------------------------------------
 
            Bend                         Bend
E------------------------------------------------------
B------------------------------------------------------
G---------------------------16-16-16-16-16-17-19-16----
D--1417-17-17-17-17-17-17-----------------------------
A------------------------------------------------------
E------------------------------------------------------
 
            Bend                         Bend
E------------------------------------------------------
B------------------------------------------------------
G-16-16-16-16-16-17-19-16---16-16-16-16-16-17-19-16----
D------------------------------------------------------
A------------------------------------------------------
E------------------------------------------------------


Bu içerik için hata bildir
Rastgele
Bilgiler
  • Ekleyen: admin,
  • Katkıda bulunanlar:
  • (Profil sayfanızdan akor gönderebilirsiniz)
Yorumlar
Üye girişi yapmanız gerekmektedir
Yürekten akoru , Yürekten orjinal ton akor , Yürekten kolay ton akoru