>
Kapo:3
Intro
-3-----2-----1------0-----------------------------0-2--
---0-----0-----0--------------3------5----1-1---0------
-----------------------0----4---4--5------2-----2------  ->   
-2-----0----------------------------------2-----1------  
--------------------3-------2------3------------2------
-------------3----------------------------2------------
               
                                             I.          II.
-3-----2-------0---------------------------------0--2-------0-----
---0-----0-----------3------1----0----1-------3-------------0-----
-----------------0-----0------0----0----0--.----------------0-----
-2-----0-----------------------------------.--------0-------2-----
---------------3-----2------0---------0-------2--3----------2-----
---------------------------------3--------------------------0-----

                                    I.
Gül,sen gülünce bahar renklerden pembe.
                         II.
Günlerden pazar aklım sende 
                
                                       I.
Sev, sen sevince güzel bazen su, bazen sel.
                               II. 
Çünkü sevmeyenler eksiktir bir yerde


        A
Alabora olmak istemem
     D            E
Bindiğim bu teknede
    A
Rüzgâr sert biraz
D          E
Galiba poyraz
     F#m
Hani gidecektik başka yere?
E                D 
Çoktular ama hiç yoktular

     Solo
                                  I.

Gör, sen görünce ışık sülün renkleri
                                    II.
Mevsimlerden hep yaz yerlerden Akdeniz

   
                              I. 
Duy, sen duyunca müzik seslerden fa
                                     II.
Çünkü duymazsan eğer tüm şarkılar boşuna


         A
Dalavereden bıktım
        D         E
Pata küte girişmekten
  A
Göya suçsuzmuşum
     D            E
Korkarak kirletmekten
     F#m
Hani değiştirecektik dünyayı?
E                D  
Çoktular ama hiç yoktular
E                D  
Çoktular ama hiç yoktular


Bu içerik için hata bildir
Rastgele
Bilgiler
  • Ekleyen: admin,
  • Katkıda bulunanlar:
  • (Profil sayfanızdan akor gönderebilirsiniz)
Yorumlar
Üye girişi yapmanız gerekmektedir
Çoktular Ama Hiç Yoktular akoru , Çoktular Ama Hiç Yoktular orjinal ton akor , Çoktular Ama Hiç Yoktular kolay ton akoru