>
Intro solo 
   1. 
 E---------------------------------------------------------------------- 
 B--10-1213-13-15-12-1213-10-10-12-8--8-------------8---------(2e git) 
 G----------------------------------------9-10-10-10---9-9-10-9--------- 
 D---------------------------------------------------------------------- 
 A---------------------------------------------------------------------- 
 E----------------------------------------------------------------------  
   2. 
 E---------------------------------------------------------------------- 
 B-----------10-1213-13-15-12-1213-10-10-12-8--8-----------8---------- 
 G--9-10-12---------------------------------------9-10-10-10---9-9-10-9- 
 D---------------------------------------------------------------------- 
 A---------------------------------------------------------------------- 
 E---------------------------------------------------------------------- 
 
A#
Zefir radyoları varya  
F 
Briket duvarlarda 
A#
Sesini duydum onlarda  
F 
Sarıldım akça gömleğine 
A#
Yürü dedin yürüdüm 
C 
Devam et dedi muavin 
A Bölümü
A#    C       F Fmaj7 Dm 
Yolda güneş yükseliyordu güneye giderken 
A#    C       F Fmaj7 Dm           
Solda güneş yükseliyordu güneye giderken 
 
Sararmış tütün tarlası  
İlerde beyaz yaşmaklı 
Albasmadan giysiyle  
Kadınlar çalışıyordu 
Yüce dağlar ilerde bor 
En yüksegini ön önde gördüm 
  
Nakarat A 
  
Sararmış tütün tarlası 
İlerde beyaz yaşmaklı 
Al basmadan giysileriyle 
Kadınlar çalışıyorlar 
Yüce dağlar ilerde mor  
En yükseği en önce gördü 
  
Nakarat A 
   
Gm        C                F          C   Dm 
Küçük bir çocuk yeni uyanmış gözleri mahmur 
 Gm       C             F   C  Dm 
Muavin de çocuktu fakat uykusuzdu, bağırırken 
  
Nakarat A   

Bir köy var çok uzakta 
Beyazdan minaresi 
Kırmızı damlı evleriyle 
Köymüzdür varmasakta 
Yanımda oturan belli ki oradan  
Bana biraz yandan baksada   


Bu içerik için hata bildir
Rastgele
Bilgiler
  • Ekleyen: admin,
  • Katkıda bulunanlar:
  • (Profil sayfanızdan akor gönderebilirsiniz)
Yorumlar
Üye girişi yapmanız gerekmektedir
Güneye Giderken akoru , Güneye Giderken orjinal ton akor , Güneye Giderken kolay ton akoru