Cake - Never There - Akor ( Orjinal Ton Kolay )
Akorlar Mobil uygulamasını
Şimdi İndirin






Intro riff
 
e-----------------------------------------#
b-----------------------------------------#
g-----------------------------------------#
d---------------------2------1------------#
a--------------0---3-------2--------------#
e----0---3--------------------------------#
 
riff 1
 
e-----------------------------------------#
b--------5---5----------------------------#
g----4------------------------------------#
d-----------------------------------------#
a-----------------------------------------#
e-----------------------------------------#
 
riff 2
 
e-----------------------------------------#
b--------7---5----------------------------#
g----4------------------------------------#
d-----------------------------------------#
a-----------------------------------------#
e-----------------------------------------#
 
ask for a friend to  repeat it throughout most part of the song!!!
 
(mute)
 
I need your arms around me 
 
I need to feel your touch 
 
(intro riff)
 
 
Am           Am7       Am
I need your understanding 
Dm        Dm7         Am    Am7   Am
I need your love so much 
Am            Am7         Am
you tell me that you love me 
Dm           Dm7         Dm
so you tell me that you care 
         Am (mute)       Am(mute)         
but when I need you \"baby your never there\" 
 
Am    Am7  Am  Dm  Dm7   Dm
on the phone long long distance 
Am    Am7  Am  Dm  Dm7   Dm
always threw such strong resistance 
Am    Am7  Am  Dm  Dm7   Dm
first you say your too busy 
Am    Am7  Am  Dm  Dm7   Dm
I wonder if you even miss me 
 
           Am    C       (riff 1)
         | never there 
         |       Am     Dm     (riff 2)
CHORUS   | your never there 
         |       Dm    Am   C     G            (riff 1)
         | your never ever ever ever there 
 
(mute)
A goldenbird that flys away a candle stick o\' flame 
 
Am           Am7       Am
to think that I held you yesterday 
Dm        Dm7         Dm
your love was just a game 
Am          Am7       Am    Dm        Dm7         Dm
A goldenbird that flys away a candle stick o\' flame 
Am           Am7       Am
to think that I held you yesterday 
Dm        Dm7         Dm
your love was just a game 
Am           Am7       Am
you tell me that you love me so 
Dm        Dm7         Dm
you tell me that you care 
 
Am           Am7       Am
but when I need you baby
 
(you\'re never there)
 
Am    Am7  Am  Dm  Dm7   Dm
take the time to get know me 
Am    Am7  Am  Dm  Dm7   Dm
if want me why cant you just show me 
Am    Am7  Am Dm  Dm7   Dm
were always on this roller coaster 
Am    Am7  Am  Dm  Dm7   Dm
if you want me why cant you get closer



Rastgele
Bu içerik için hata bildir



Bilgiler
  • Ekleyen: admin,
  • Katkıda bulunanlar:
  • (Profil sayfanızdan akor gönderebilirsiniz)
Yorumlar
Üye girişi yapmanız gerekmektedir