Akorlar Mobil uygulamasını
Şimdi İndirin






Reklam
 Ne yaptım... ilk 4'lük bu arpejle
E|--------------------------------------|
B|--------------------------------------|
G|-4-4---4-4--4-4--5-5--2-2--4-4--2-2---|
D|--5-5---5-5--4-4--5-5--4-4--5-5--4-4--|
A|--------------------------------------|
E|--------------------------------------|
                     2. 4'lük bu arpejle
E|--------------------------------------------------|
B|--------------------------------------------------|
G|-----4-4--5-5-5-5--2-2--5-5--2-2--5-5--7-7--4-4---|
D|--4---2-2--2-2-2-2--0-0--2-2--0-0--2-2--7-7--5-5--|
A|--------------------------------------------------|
E|--------------------------------------------------|


C             G
Ne yaptım biliyor musun
F        G            C
Daha çok sarkı söyledim
C                G
Sigaraya yeniden basladım
F         G             C
Alışveris yaptım gereksiz

C B  Am             F
     Ne yaptım biliyor musun
              G
Bol bol seyahat ettim
F           G
Hatta yalnızlık çektim
F         G           C
Pisman oldum, kimseye söylemedim

C B  Am                Dm
     Yani sustum genelde
     Am         Dm
Bazen de gülümsedim nazikçe
  F         G          C
Dinlemediğim belli olmasın diye

Am       F               Am
Bitti buraya kadarmıs dedim
      F         Am
Unuttum bile dedim
     G F               C
Avuttum kendimi sözde
    Am       F             G
Ama yine de akıyor gözyaslarım
  Em           F
Islatıyor yastığımı 
     G                C
Seni özlediğim gecelerde

Islık : 
Am  F  Am  F  Am  F  C 
Nakarat



Rastgele Reklam
Bu içerik için hata bildir



Bilgiler
  • Ekleyen: admin,
  • Katkıda bulunanlar:
  • (Profil sayfanızdan akor gönderebilirsiniz)
Yorumlar
Üye girişi yapmanız gerekmektedir
Reklam