Cengiz Kurtoğlu - Unutulan - Akor ( Orjinal Ton Kolay )
Akorlar Mobil uygulamasını
Şimdi İndirin






Cengiz Kurtoğlu - Unutulan 5 1
Am                 Dm                   C 
Önce birkaç damla yaş, gözlerimden süzüldü, 
C                A#                 Am      
İnanmadım yıkıldım, seninmiydi bu düğün, 
Am              Dm                  C            
Hıçkırdım sendelim, bacaklarım çözüldü, 
C                 A#                 Am 
Yoksa sen değilmiydin, o uğruna öldüğüm. 
    
    Dm    C     A#              
1- 0-----3-----1----1-------------------------- 
2- --1-----0------1-----1---------------------- 
3- ----2-----0-------------1--------0-2-2-0---- 
4- ---------------------------2-2-3---------3-2 
5- -------------------------------------------- 
6- -------------------------------------------- 
  
Am                 Dm                   C 
Aklımdan geçti birden, bütün davranışların, 
C                A#                  Am 
Tamamlıyordun beni, aynıydı herşeyimiz, 
Am               Dm                  C            
En büyük desteğimdi, sihirli bakışların, 
C                 A#                   Am 
Her zaman yanımdaydın, çok mutluyduk ikimiz, 
 
1- 0-0-0-0-0-5--5-7-8-7-5-7-5-----5-7-8--------------------- 
2- --------------------------8--8-------8-5-6-5-5-6-5------- 
3- ---------------------------------------------------7-5-7- 
4- --------------------------------------------------------- 
5- --------------------------------------------------------- 
6- --------------------------------------------------------- 
  
Am               Dm                C 
Gözlerim bulutlandı, başım öne eğildi, 
C                A#                Am 
Yalan değil, olamaz, duymadın feryadımı, 
Am               Dm                    C 
Bütün bu gördüklerim, birer gerçek değildi,   
C                 A#                 Am 
Benim değilsin artık, unut gitsin adımı.



Rastgele
Bu içerik için hata bildir



Bilgiler
  • Ekleyen: admin,
  • Katkıda bulunanlar:
  • (Profil sayfanızdan akor gönderebilirsiniz)
Yorumlar
Üye girişi yapmanız gerekmektedir