Çeşitli - Bekledim De Gelmedin - Akor ( Orjinal Ton Kolay )
Akorlar Mobil uygulamasını
Şimdi İndirin






E|------|------|------|------|------|------|------|------|
 B|------|------|------|------|------|------|------|------|
 G|212---|212---|232323|2-----|212---|212---|2320--|------|
 D|----0-|----0-|------|------|----0-|----0-|----32|0-----|
 
 E|------|------|------|------|------|------|------|------|
 B|------|------|----1-|0-----|1-----|------|------|------|
 G|212---|212---|2-3---|------|--3-2-|0-----|----2-|------|
 D|----0-|----0-|------|------|------|--3-2-|0-3---|0-----|
 
 |:Am                                 Dm            Am   :|
 E|------|------|------|------|------|------|------|------|
 B|------|------|------|------|------|3-1---|------|------|
 G|------|2--2--|------|2-----|2---2-|----3-|2-0---|2-----|
 D|0---0-|------|3-2-0-|------|------|------|----3-|------|
 
 |:Am            E7     Am                   Dm     Am   :|
 E|------|1---1-|0---0-|------|------|1-0---|------|------|
 B|------|------|------|3-----|1---1-|----3-|1-3---|------|
 G|2---2-|------|------|------|------|------|----3-|2-----|
 D|------|------|------|------|------|------|------|------|
 
          Dm            A7     E7     Am     E7     Am
 E|------|------|------|------|------|------|------|------|
 B|1-----|3-----|------|1-----|------|------|------|------|
 G|------|------|3-----|------|0---2-|------|------|---023|
 D|------|------|------|------|------|3---0-|2---3-|023---|
 
          Dm            A7     E7     Am     E7     Am
 E|------|------|------|------|------|------|------|------|
 B|1-----|3-----|------|1-----|------|------|------|------|
 G|------|------|3-----|------|0---2-|----0-|------|------|
 D|------|------|------|------|------|3-----|2---3-|0-----|
 
 Am
 Bekledim de gelmedin,
      Dm        Am
 Sevdigimi bilmedin,
           E7   Am
 Gözyasimi silmedin,
             Dm   Am
 Hiç mi beni sevmedin.
 
   (    Dm     Am  E7     Am   E7   Am
   ( Söyle, söyle, hiç mi beni sevmedin
[A](    Dm     Am  E7     Am   E7   Am
   ( Söyle, söyle, hiç mi beni sevmedin
 
 Am
 Bir öpücük ver bana,
      Dm        Am
 Yalvariyorum sana,
           E7  Am
 Beni kucaklasana,
           Dm  Am
 Kollarina alsana
 
 Tekrar[A]



Rastgele
Bu içerik için hata bildir



Bilgiler
  • Ekleyen: admin,
  • Katkıda bulunanlar:
  • (Profil sayfanızdan akor gönderebilirsiniz)
Yorumlar
Üye girişi yapmanız gerekmektedir