Çeşitli - Şarkımı Senin İçin Yazdığımı Bilseydin - Akor ( Orjinal Ton Kolay )
Akorlar Mobil uygulamasını
Şimdi İndirin






G#
|: A                    E                           A
 E|------|------|------|------|------|------|------|0-----|
 B|1-1-0-|1-1-0-|1-1-01|3-----|3-3-10|3-3-10|3-3-13|------|
 G|-----2|-----2|------|------|------|------|------|------|
 D|------|------|------|------|------|------|------|------|
 A|------|------|------|------|------|------|------|------|
   D             E      A                           E
 E|1-0---|------|------|------|------|------|------|------|
 B|----3-|1-0---|----0-|1-----|1-0---|------|------|------|
 G|------|----2-|0-2---|------|----2-|0-----|------|0-----|
 D|------|------|------|------|------|--3-2-|0-2-3-|------|
 A|------|------|------|------|------|------|------|------|
   D      A      E      A                    E      A    :|
 E|------|------|------|------|------|------|------|------|
 B|------|------|------|------|1-0---|------|------|------|
 G|--2-22|--0-00|------|------|----2-|0-----|------|------|
 D|3-----|2-----|0-3-33|--2---|------|--3-2-|0-2---|------|
 A|------|------|------|3-----|------|------|----2-|3-----|
 |:A                    E             D      E      A    :|
 E|------|------|------|------|------|------|------|------|
 B|1---1-|1-----|1-3-1-|0-----|0-1-0-|------|----0-|1-----|
 G|------|------|------|------|------|2-----|0-2---|------|
 D|------|------|------|------|------|------|------|------|
 A|------|------|------|------|------|------|------|------|
 |:A                    E                    A           :|
 E|------|------|------|------|------|------|------|------|
 B|------|1-0---|------|------|------|------|------|------|
 G|0-0-0-|----2-|0-----|------|0-0-0-|0-----|------|------|
 D|------|------|--3-2-|0-----|------|------|2-0-2-|------|
 A|------|------|------|------|------|------|------|3-----|
 |:A      E      A             E                    A    :|
 E|------|------|------|0-----|------|1-----|0-----|------|
 B|1-1-1-|3-----|1---3-|------|3-3-3-|------|--3-0-|1-----|
 G|------|------|------|------|------|------|------|------|
 D|------|------|------|------|------|------|------|------|
 A|------|------|------|------|------|------|------|------|
 
 A              E          D  E     A         )
 Sarkimi senin için yazdigimi bilseydin       )2
                  E               A           )
 Dünyanin bir ucundan kalkip bana gelseydin   )2
         E  A        E       D  E     A       )
 Benim gibi özlesen, benim gibi sevseydin     )2
                  E               A           )
 Dünyanin bir ucundan kalkip bana gelseydin   )2
               E            D  E     A        )
 Kuruyan dudagima bir damla su verseydin      )2
                E              A              )
 Yine öyle neseyle  kahkahayla gülseydin      )2
         E  A        E       D  E     A       )
 Benim gibi özlesen, benim gibi sevseydin     )2
                  E               A           )
 Dünyanin bir ucundan kalkip bana gelseydin   )2



Rastgele
Bu içerik için hata bildir



Bilgiler
  • Ekleyen: admin,
  • Katkıda bulunanlar:
  • (Profil sayfanızdan akor gönderebilirsiniz)
Yorumlar
Üye girişi yapmanız gerekmektedir