Milyonlarca şarkı, En sevdiğiniz Parçalar için Akorlar Alın, Birlikte Çalın
G#
: A                    E                           A
 E------------------------------------------0-----
 B1-1-0-1-1-0-1-1-013-----3-3-103-3-103-3-13------
 G-----2-----2------------------------------------
 D------------------------------------------------
 A------------------------------------------------
   D             E      A                           E
 E1-0---------------------------------------------
 B----3-1-0-------0-1-----1-0---------------------
 G----------2-0-2-------------2-0-----------0-----
 D--------------------------------3-2-0-2-3-------
 A------------------------------------------------
   D      A      E      A                    E      A    :
 E------------------------------------------------
 B------------------------1-0---------------------
 G--2-22--0-00----------------2-0-----------------
 D3-----2-----0-3-33--2-----------3-2-0-2---------
 A------------------3---------------------2-3-----
 :A                    E             D      E      A    :
 E------------------------------------------------
 B1---1-1-----1-3-1-0-----0-1-0-----------0-1-----
 G------------------------------2-----0-2---------
 D------------------------------------------------
 A------------------------------------------------
 :A                    E                    A           :
 E------------------------------------------------
 B------1-0---------------------------------------
 G0-0-0-----2-0-----------0-0-0-0-----------------
 D--------------3-2-0-----------------2-0-2-------
 A------------------------------------------3-----
 :A      E      A             E                    A    :
 E------------------0-----------1-----0-----------
 B1-1-1-3-----1---3-------3-3-3---------3-0-1-----
 G------------------------------------------------
 D------------------------------------------------
 A------------------------------------------------
 
 A              E          D  E     A         )
 Sarkimi senin için yazdigimi bilseydin       )2
                  E               A           )
 Dünyanin bir ucundan kalkip bana gelseydin   )2
         E  A        E       D  E     A       )
 Benim gibi özlesen, benim gibi sevseydin     )2
                  E               A           )
 Dünyanin bir ucundan kalkip bana gelseydin   )2
               E            D  E     A        )
 Kuruyan dudagima bir damla su verseydin      )2
                E              A              )
 Yine öyle neseyle  kahkahayla gülseydin      )2
         E  A        E       D  E     A       )
 Benim gibi özlesen, benim gibi sevseydin     )2
                  E               A           )
 Dünyanin bir ucundan kalkip bana gelseydin   )2
Şarkımı Senin İçin Yazdığımı Bilseydin akor , Şarkımı Senin İçin Yazdığımı Bilseydin orjinal ton akor , Şarkımı Senin İçin Yazdığımı Bilseydin kolay ton akor
Bu içerik için hata bildir
Yorumlar
Üye girişi yapmanız gerekmektedir
Bilgiler
  • Ekleyen: admin,
  • Katkıda bulunanlar:
  • (Profil sayfanızdan akor gönderebilirsiniz)