Reklam Chris Cornell - Thank You - Akor ( Orjinal Ton Kolay )
Akorlar Mobil uygulamasını
Şimdi İndirin






Reklam
E|-----2------2---3---2---0---2------2---0---2---2-----------------------|
B|-----3------3---3---3---3---3------3---3---3---3-----------------------|
G|-----2------2---2---2---2---2------2---2---2---2-----------------------|
D|-----0------0---0---0---0---0------0---0---0---0-----------------------|
A|-----0------0---0---0---0---0------0---0---0---0-----------------------|
E|-----0------0---0---0---0---0------0---0---0---0-----------------------|
 
E|-----2------2---3---2---0---2------2---0---2---2-----------------------|
B|-----3------3---3---3---3---3------3---3---3---3-----------------------|
G|-----0------0---0---0---0---0------0---0---0---0-----------------------|
D|-----0------0---0---0---0---0------0---0---0---0-----------------------|
A|-----3------3---3---3---3---3------3---3---3---3-----------------------|
E|-----0------0---0---0---0---0------0---0---0---0-----------------------|
 
E|-----2------2---3---2---0---2------2---0---2---2-----------------------|
B|-----3------3---3---3---3---3------3---3---3---3-----------------------|
G|-----0------0---0---0---0---0------0---0---0---0-----------------------|
D|-----0------0---0---0---0---0------0---0---0---0-----------------------|
A|-----2------2---2---2---2---2------2---2---2---2-----------------------|
E|-----0------0---0---0---0---0------0---0---0---0-----------------------|
 
E|-----2------2---3---2---0---2------2---0---2---2---2h3----------------|
B|-----3------3---3---3---3---3------3---3---3---3---3--------------------|
G|-----2------2---2---2---2---2------2---2---2---2---2--------------------|
D|-----0------0---0---0---0---0------0---0---0---0---0--------------------|
A|-----0------0---0---0---0---0------0---0---0---0---0--------------------|
E|-----0------0---0---0---0---0------0---0---0---0---0--------------------|
 
           F                D#
If the sun refused to shine
A#                     F
I would still be loving you
F                                      D#
When mountains crumble to the sea
A#                              F
There would still be you and me
 
Dm             G
Kind of women, I give you my all
Dm                    G           C
Kind of women, nothing more
 
D#
Little drops of rain
A#
Whisper on the plains
F                                       Fsus4  F
Tears of loves lost in the days gone by
D#
And my love is strong
A#
Here there is no wrong
F                                 Fsus4  F
Together we shall go until we die
 
An inspiration is what you are to me
Inspiration, love you see
 
And so today my world it smiles
Your hand in mine we walk the miles
But thanks to you, it will be done
For you, to me, are the only one
 
Happiness, no more be sad
Happiness, I am glad
 
Little drops of rain
Whisper on the plains
Tears of loves lost in the days gone by
And my love is strong
Here there is no wrong
Together we shall go until we die
 
If the sun refused to shine
I would still be loving you
When mountains crumble to the sea
There would still be you and me
 
Son kısımda akorlar arası geçişi yazıyorum sadece :))
 
      F                          D#                       Gm    F
 
E|---2---------------------------0----------------------0------------------------2-------|
B|---3---------------------------1----------------------0------------------------3-------|
G|---2---0h2-----2----2----------0----------------0-----0------------------------2-------|
D|---0--------------------0------2---------0h2----------2-----------0h2---0------0-------|
A|---0---------------------------3-----3----------------2----0h2-----------------0-------|
E|---0---------------------------0----------------------0------------------------0-------|



Rastgele Reklam
Bu içerik için hata bildir



Bilgiler
  • Ekleyen: admin,
  • Katkıda bulunanlar:
  • (Profil sayfanızdan akor gönderebilirsiniz)
Yorumlar
Üye girişi yapmanız gerekmektedir
Reklam