Direc-T - Derya - Akor ( Orjinal Ton Kolay )
Akorlar Mobil uygulamasını
Şimdi İndirin






G F#
 
G F#
 
G F#            B
 anlasana
 
G              F#
Anlatamadımsa
G   F#
Sen anla
G         F#                   B
Asla yoksun sen yanımda
 
-------------10----------------------------------9------------------------------
---8---------------------------------10------------
--------11--------11-----------------------11--------11--------------------10---
----10----------------------12---------12-----
---10--------------------10----------10--------------------10----------10-------
-----------10----------12------------------12-
--------------------------------------------------------------------------------
-----------------------------------------------------
--------------------------------------------------------------------------------
-----------------------------------------------------
--------------------------------------------------------------------------------
-----------------------------------------------------
Yalnızca aşktı isteğim o zamanlar
(D7         Dm7    E                 G7)
 
D7         Dm7            E
Şimdiyse çok çok uzaklar
 
G F#
 
G F#
 
G F#                             B
Orda  bir kadın var tavuklarla
G F#
Anlatamadımsa
G F#
Sen anla
G F#                       B
Gerçek ise öbür dünyada
 
-------------10----------------------------------9------------------------------
---8---------------------------------10------------
--------11--------11-----------------------11--------11--------------------10---
----10----------------------12---------12-----
---10--------------------10----------10--------------------10----------10-------
-----------10----------12------------------12-
--------------------------------------------------------------------------------
-----------------------------------------------------
--------------------------------------------------------------------------------
-----------------------------------------------------
--------------------------------------------------------------------------------
-----------------------------------------------------
Yalnızca aşktı isteğim o zamanlar
(D7         Dm7    E                 G7)
 
D7         Dm7            E
Şimdiyse çok çok uzaklar
 
Solo:
--------------------------------------------------------------------------------
--------------
--------------------------------------------------------------------------------
--------------
--------------------------------------------------------------------------------
--------------
--------------------------------------------------------------------------------
---------------  x3
--------------------------------------------------------------------------------
--------------
--6--6--6--6------10------6--6--6--6------5--5--5--5------9------5--5--5--5-----
---
 
-----------------------------------------------------------------
-----------------------------------------------------------------
----------------------5----7----5--4---0---------------------
------------------4---------------------------------------------
--------------5-------------------------------------------------
-----------------------------------------------------------------
 
G F#
 
G F#
 
G F#            B
 anlasana
G              F#
Anlatamadımsa
G   F#
Sen anla
G         F#                   B
Asla yoksun sen yanımda
 
D7         Dm7    E                 7
Yalnızca aşktı isteğim o zamanlar
 
D7         Dm7            E
Şimdiyse çok çok uzaklar
 
-------------10----------------------------------9------------------------------
---8---------------------------------10------------
--------11--------11-----------------------11--------11--------------------10---
----10----------------------12---------12-----
---10--------------------10----------10--------------------10----------10-------
-----------10----------12------------------12-
--------------------------------------------------------------------------------
-----------------------------------------------------
--------------------------------------------------------------------------------
-----------------------------------------------------
--------------------------------------------------------------------------------
-----------------------------------------------------
Yalnızca aşktı isteğim o zamanlar
-------------10----------------------------------9------------------------------
---8---------------------------------8------------
--------11--------11-----------------------11--------11--------------------10---
----10----------------------10--------10-----
---10--------------------10----------10--------------------10----------10-------
-----------10----------10-----------------10-
--------------------------------------------------------------------------------
-----------------------------------------------------
--------------------------------------------------------------------------------
-----------------------------------------------------
--------------------------------------------------------------------------------
-----------------------------------------------------
Şimdiyse çok çok uzaklar
 
D7         Dm7    E                 7
Yalnızca aşktı isteğim o zamanlar
D7         F#                   B
Şimdiyse çok çok uzaklar



Rastgele
Bu içerik için hata bildir



Bilgiler
  • Ekleyen: admin,
  • Katkıda bulunanlar:
  • (Profil sayfanızdan akor gönderebilirsiniz)
Yorumlar
Üye girişi yapmanız gerekmektedir