Direc-T - Yaratık - Akor ( Orjinal Ton Kolay )
Akorlar Mobil uygulamasını
Şimdi İndirin






F                     D#
Bıraksaydın gösterirdim
F                     D#
Neler istediğimi senden
F         D#          Gm
Üzerinde hep uçarken ben
 
G5 Bb#5
F                     D#
Yere hızla çakılırken
F                             D#
Kimse hiç farkımda değil
F          D#        Gm
Bu diyarda yaratığım ben
 
F              Gm
Ben yalnızım  X2
 
G5 D#5 A#5 F5 G5
 
F                 D#
Ah o gözler,güzel sözler
F                   D#
Bütün bunlar hep yalanmış
F              D#          Gm
Sanırım aptalın biriydim
 
G5 Gb
F                  D#
Kapında bir artığım ben
F                    D#
Duvarında bir lekeyim
F                D#    Gm
Bu diyarda yaratığım ben
 
F              Gm
Ben yalnızım  X2
 
G5 D#5 A#5 F5 G5
 
Solo:
--------------------------------------
--------------------------------------
--------------------------------------
--------------------------------------  x2
-----0---2---4-5-5-4--2---0------
-------------------------------------
 
--------------------------------------
--------------------------------------
--------------------------------------
--------------------------------------  x2
-----0---2---4-5-5-4--2---0------
-------------------------------------
 
-----------------------------------------------
-----------------------------------------------
--------------------------------2-----2--1--2
--------------------------------2-----2--1--2
---9--5--4-4--5--4--2---0---2-----2--1--0
-----------------------------------------------
 
F              Gm
Ben yalnızım  X2
 
G5 D#5 A#5 F5
G5 D#5 A#5 F5
G5 D#5 A#5 F5
B5-B7



Rastgele
Bu içerik için hata bildir



Bilgiler
  • Ekleyen: admin,
  • Katkıda bulunanlar:
  • (Profil sayfanızdan akor gönderebilirsiniz)
Yorumlar
Üye girişi yapmanız gerekmektedir