Düş Sokağı Sakinleri - Aşk Eskitir Beni - Akor ( Orjinal Ton Kolay )
Akorlar Mobil uygulamasını
Şimdi İndirin






 A                       E
e|-2--0/2--2--2--2-3-2-0-|-0--0----0--0--0--0--0--0-|   )
B|-3----------3----------|-2--0/2--2--2--2--3--2--0-|   )
G|-2----------2----------|-2----------2-------------|   )
D|-x----------x----------|-2----------2-------------|   )
A|-x----------x----------|-x----------x-------------|   )
E|-x----------x----------|-x----------x-------------|   )
                                                          ) 
                                                          ) 4X
F#m                        G#m7                    
e|-2--2----2--2--2--2--2--2-|-4--4----4--4-----|        )
B|-3--2/3--3--3--3--5--3--2-|-5--4/5--5--5-----|        )
G|-4------------------------|-4----------------|        )
D|-4------------------------|-6----------------|        )
A|-2------------------------|-4----------------|        )
E|-2------------------------|-4----------------|        )

A           E      F#m         E
Aşk eskitir beni, hayallerim bekletir
A         E      F#m            E
Her şey yaşanır, ama bazı şeyler küflenir
D          C#        D  C#        F#m
Yaşam beni benden alır, yine bana verir
A E F#mG#m7   G#m7 A E F#m            
Da ra raa da.....                       ) 2X
A           E  F#m         E
Karışır aklım, kendime döner dururum
A           E       F#m         E
Ardımda kalanları, göğsümde yeniden doğururum
D          C#       D   C#        F#m
Yaşam beni benden alır, kimlere verir

D F#mD F#m   Bm F#mBm F#m  Bm F#mBm F#m
G F#mG F#m   Bm F#mBm F#m  G F#mG F#m

A             E    F#m                     E
Sen hiç bilmezsin, nasıl yalnızlık büyütür insan
A             E    F#m                     E
Sen hiç görmezsin, nasıl yaşlanır severken insan
D            C#               D   C#               F#m
Sen istersen yüreğim ay ışığında, gecen hep masal olur
F#m                     A    C#             E
Sen istersen bu gök boyanır, bu mavi hep kalır
F#m                          A   C#               E
Sen seversen bu yürek havalanır, bir çift kanat olur
D            C#                D  C#                   F#m
Sen gidersen gözlerim parçalanır, bana hangi tarafım kalır
A E F#mG#m7  G#m7 A E F#m
Da ra raa da..... 



Rastgele
Bu içerik için hata bildir



Bilgiler
  • Ekleyen: admin,
  • Katkıda bulunanlar:
  • (Profil sayfanızdan akor gönderebilirsiniz)
Yorumlar
Üye girişi yapmanız gerekmektedir