Ed Sheeran - Castle On The Hill - Akor ( Orjinal Ton Kolay )
Akorlar Mobil uygulamasını
Şimdi İndirin






Verse            Pre-Chorus     Chorus             Bridge
------------     ----------     --------------     --------------
D     xx023x     G  3x00xx      D       xx0232     Bm      x20233
D/F#  2x023x     A  x022xx      D/F#    2x0232     G       3x0033
G     3200xx     D  xx023x      G       3x0033     D       xx0232
Bm    x202xx                    Bm      x20233     A7sus4  x02033
A     x022xx                    A7sus4  x02033


[Intro]
C


[Verse 1]

C                C/E   F                  Am   G
  When I was six years old I broke my leg
C               C/E  F                    Am         G     
  And I was running  from my brother and his friends
C            C/E   F                   Am                 G       
  And tasted the sweet perfume of the mountain grass as I rolled down
C           C/E   F   Am                 G
  I was younger  then,  take me back to when I


[Pre-Chorus 1]

F           G                  C
  Found my heart and broke it here
                    F
  Made friends and lost them through the years
F               G                C                  F
  And I've not seen the roaring fields in so long, I know I've grown
F              G
  But I can't wait to go home


[Chorus 1]

  C      C/E  F    Am         G7sus 
  I'm on my   way, driving at ninety
       C         C/E  F     Am         G7sus 
  Down those country  lanes singing to Tiny Dancer
      C      C/E  F           Am       G7sus 
  And I miss the  way you make  me feel      and it's real
       C          C/E  F      Am        G7sus              C
  When we watched the  sunset over the castle on the hill


[Verse 2]

C         C/E   F               Am                     G
  Fifteen years old and smoking hand-rolled cigarettes
C              C/E    F                          Am                      G
  Running from the law through the backfields and  getting drunk with my friends
C        C/E    F                Am             G
  Had my first kiss on a Friday night, I don't reckon I did it
C                C/E  F    Am                 G
Right, I was younger  then,  take me back to when we found


[Pre-Chorus 2]

F          G                    C 
  Weekend jobs and when we got paid
                  F                      F
  We'd buy cheap spirits and drink them straight
             G                       C              F
  Me and my friends have not thrown up in so long, oh how we've grown
F             G
  But I can't wait to go home


[Chorus 2]

  C      C/E  F    Am         G7sus 
  I'm on my   way, driving at ninety
       C         C/E  F     Am         G7sus 
  Down those country  lanes singing to Tiny Dancer
      C      C/E  F           Am       G7sus 
  And I miss the  way you make  me feel      and it's real
  C          C/E  F      Am        G7sus 
  We watched the  sunset over the castle on the hill

  C          C/E  F      Am        G7sus 
                         Over the castle on the hill
  C          C/E  F      Am        G7sus 
                         Over the castle on the hill


[Bridge]

Am  F  C  G7sus 

Am             F                       C           G7sus 
   One friend left to sell clothes and, one works down by the coast
Am              F                   C       G7sus 
   One had two kids but lives alone, one's brother overdosed
Am         F                        C            G7sus 
   One's already on his second wife, one's just barely getting by but
Am               F                  C       G7sus 
   These people raised me and I-I-I, can't wait to go home


[Chorus 3]

      C      C/E  F    Am        G7sus 
  And I'm on my   way, I still remember
        C       C/E  F          Am         G7sus 
  These old country  lanes when we did not know the answers
      C      C/E  F           Am       G7sus 
  And I miss the  way you make  me feel      and it's real
  C          C/E  F     Am        G7sus 
  We watched the sunset over the castle on the hill

  C          C/E  F      Am        G7sus 
                         Over the castle on the hill
  C          C/E  F      Am        G7sus             
                         Over the castle on the hill
  C

-----------
As played by Ed on BBC Radio 1 on Jan 6, 2017: https://www.youtube.com/watch?v=Ytb7J0ciBcE

[Verse] and [Pre-Chorus] (palm mute):

   C                C/E    F                          Am                         G
e|-----------------------|--------------------------|--------------------------|--------------------------|
B|-3--------3------------|--------------------------|--------------------------|--------------------------|
G|-2--------2------------|--------------------------|-2--------2--------2--2-2-|-2--------2--------2--2-2-|
D|-0--0--0--0--0--0------|-0--------0--------0--0-0-|-0--------0--------0--0-0-|-2--------2--------2--2-2-|
A|-----------------------|-2--------2--------2--2-2-|-2--2--2--2--2--2--2--2-2-|-0--0--0--0--0--0--0--0-0-|
E|-------------------2---|-3--3--3--3--3--3--3--3-3-|--------------------------|--------------------------|
   ↓  ↓  ↓  ↓  ↓  ↓  ↓     ↓  ↓  ↓  ↓  ↓  ↓  ↓  ↓ ↑   ↓  ↓  ↓  ↓  ↓  ↓  ↓  ↓ ↑   ↓  ↓  ↓  ↓  ↓  ↓  ↓  ↓ ↑
   >        >        >     >        >        >        >        >        >        >        >        >

[Chorus] (let ring):

   D                D/F#   G                          Bm (actually Bm7#5)        A7sus4
e|-2--------3--------2---|-3--------3--------3--3-3-|-3--------3--------3--3-3-|-3--------3--------3--3-3-|
B|-3--------3--------3---|-3--------3--------3--3-3-|-3--------3--------3--3-3-|-3--------3--------3--3-3-|
G|-2--------2--------2---|-0--------0--------0--0-0-|-2--------2--------2--2-2-|-0--------0--------0--0-0-|
D|-0--0--0--0--0--0--0---|-0--------0--------0--0-0-|-0--------0--------0--0-0-|-2--------2--------2--2-2-|
A|-------------------x---|-x--------x--------x--x-x-|-2--2--2--2--2--2--2--2-2-|-0--0--0--0--0--0--0--0-0-|
E|-------------------2---|-3--3--3--3--3--3--3--3-3-|--------------------------|--------------------------|
   ↓  ↓  ↓  ↓  ↓  ↓  ↓     ↓  ↓  ↓  ↓  ↓  ↓  ↓  ↓ ↑   ↓  ↓  ↓  ↓  ↓  ↓  ↓  ↓ ↑   ↓  ↓  ↓  ↓  ↓  ↓  ↓  ↓ ↑


↓↑ = strumming pattern
>  = accented note



Rastgele
Bu içerik için hata bildir



Bilgiler
  • Ekleyen: devilmen,
  • Katkıda bulunanlar:
  • (Profil sayfanızdan akor gönderebilirsiniz)
Yorumlar
Üye girişi yapmanız gerekmektedir