Akorlar Mobil uygulamasını
Şimdi İndirin






Reklam
e|--5---4-5-6---5-5-0-----------------------|
B|---------------------------------------------|
G|---------------------------------------------|
D|---------------------------------------------| x2
A|---------------------------------------------|
E|---------------------------------------------|

e|--5---4-5-8---5-4-7-6|-4-5-4-0-1-0-----|2-3---------|
B|-------------------------|--------------------|------2-----|
G|-------------------------|--------------------|------------|
D|-------------------------|--------------------|------------|
A|-------------------------|--------------------|------------|
E|-------------------------|--------------------|------------|

e|---------------------------------------------|
B|---0--5-8--7--5-8--5--7-5--1-3-0-------|
G|---------------------------------------------|
D|---------------------------------------------|
A|---------------------------------------------|
E|---------------------------------------------|

e|---------------------------------------------|
B|---0--5-8--7--5-8--5--7-5--3-0-1-------|
G|---------------------------------------------|
D|---------------------------------------------|
A|---------------------------------------------|
E|---------------------------------------------|

e|---------------|-------------------------------|
B|----3---5—7-|--0--2--3--5-----------------|
G|--2-----------|-------------------------------|
D|---------------|------------------------------|
A|---------------|------------------------------|
E|---------------|------------------------------|

e|---------------------------------------------|
B|-----------3--1--1--0--0------------------|
G|--------2-----------------1--2-------------|
D|---4----------------------------------------|
A|---------------------------------------------|
E|---------------------------------------------|



Rastgele Reklam
Bu içerik için hata bildir



Bilgiler
  • Ekleyen: admin,
  • Katkıda bulunanlar:
  • (Profil sayfanızdan akor gönderebilirsiniz)
Yorumlar
Üye girişi yapmanız gerekmektedir
Reklam