Milyonlarca şarkı, En sevdiğiniz Parçalar için Akorlar Alın, Birlikte Çalın
B                            F#
Belki bir parça ömür bulunur biryerde
 B                       F#
Belki içine biraz hayat konulur
 B                         F#
Belki ölmeden insan olunur yine
  B                  F#
Belki birazda hava solunur
  E
Belki bir günn..
   E
Ağaçlar kök salınca Hepsi göğsüme batınca
  G#m                       F#
Tek odalı kağıttan şatomda Uyanırım belki
  E
Yalnızken kırık yatagımda Alışırım zamanla
  G#m                       F#           B
Bukadarı var bana hayatta Yetinirim belki
e----------------14-12---------
b------------------------------
g------------------------------
d------------------------------
a------------------------------
e------------------------------
  B                          F#
Belki bir parça akıl bulunur bir yerde
  B                         F#
Belki içine biraz zeka konulur
  E
Belki bir günn..
   E
Ağaçlar salınınca Rüzgar göğsüme dokununca
  G#m                  F#
Camdan dışarı bakınca Anlarım belki
  E
Yatağımı onarınca Dayanamam yalnızlığa
  G#m                     F#         B
Daha fazlası var hayatta İsterim belki     
e-------16-16-16-11-11-11-12-12
b------------------------------
g------------------------------
d------------------------------
a------------------------------
e------------------------------
e-------16-16-16-11-11-11-12-12
b------------------------------
g------------------------------
d------------------------------
a------------------------------
e------------------------------
e-------16-16-16-11-11-11-9-9--
b------------------------------
g------------------------------
d------------------------------
a------------------------------
e------------------------------
e-------16-16-16-11-11-11-12-12
b------------------------------
g------------------------------
d------------------------------
a------------------------------
e------------------------------
e-------16-16-16-11-11-11-12-12
b------------------------------
g------------------------------
d------------------------------
a------------------------------
e------------------------------
e-------16-16-16-11-11-11-9-9--
b------------------------------
g------------------------------
d------------------------------
a------------------------------
e------------------------------
   E
Ağaçlar salınınca Rüzgar göğsüme dokununca
  G#m                  F#
Camdan dışarı bakınca Anlarım belki
  E
Yatağımı onarınca Dayanamam yalnızlığa
  G#m                     F#         B
Daha fazlası var hayatta İsterim belki     
Sonu
D-A  (4 kere)
Belki akor , Belki orjinal ton akor , Belki kolay ton akor
Bu içerik için hata bildir
Yorumlar
Üye girişi yapmanız gerekmektedir
Bilgiler
  • Ekleyen: admin,
  • Katkıda bulunanlar:
  • (Profil sayfanızdan akor gönderebilirsiniz)