Eric Clapton - Bad Love - Akor ( Orjinal Ton Kolay )
Akorlar Mobil uygulamasını
Şimdi İndirin






e|-------5--5/8------------------------------5--5/8----------------|
B|---------------8--------6--6/8--6------------------8--6--5-------|
G|-5--7-------------5h7----------------5--7-------------------7----|
D|-----------------------------------------------------------------|
A|-----------------------------------------------------------------|
E|-----------------------------------------------------------------|
 
Repeat this over and over for the solo:
 
e|------------------------------2-------|
B|------------------------------3-------|
G|------------------------------2-------|
D|------------------------------0-------|
A|-0h2h3--2--0---------------0----------|
E|--------------3------3--2-------------|
 
Em                  A7                D
Oh What a feeling I get when I'm with you
Em                     A7             D
You take my heart into everything you do
       Eb                   F      Dm
And it makes me sad for the lonely people
Eb            F           Gm
I walked that road for so long
      Eb                       F     Dm
Now I know that I'm one of the lucky people
Eb           F         Gm
Your love is making me strong
 
CHORUS
 
Eb           F          Dm
  I've had enough  Bad love
Eb       F                        C
  I need something I can be proud of
Eb           F          Dm   Eb  F          C
  I've had enough  Bad love  No more bad love
 
Em                    A7               D
And now I see that my life has been so blue
Em                        A7             D
With all the heartaches I had till I met you
        Eb      F              Dm
But I'm glad to say now That's all behind me
Eb       F          C
With you here by my side
            Eb      F             Dm
And there's no more memories to remind me
Eb             F       C
Your love will keep me alive
 
CHORUS



Rastgele
Bu içerik için hata bildir



Bilgiler
  • Ekleyen: admin,
  • Katkıda bulunanlar:
  • (Profil sayfanızdan akor gönderebilirsiniz)
Yorumlar
Üye girişi yapmanız gerekmektedir