Erkan Ağa - Dağlarına Dargınım - Şarkı Sözü
Akorlar Mobil uygulamasını
Şimdi İndirin






Erkan Ağa - Dağlarına Dargınım 1 3
e--0-101-----0-0--------
b-3-3---3-131-3-1-1-313-
g----------------3-3---3
d-----------------------
a-----------------------
e-----------------------

e----------0-0--------
b----13-131-3-1-1-313-
g-323----------3-3---3
d---------------------
a---------------------
e---------------------

e--------------0---01-
b----13------13---3---
g-032--32--22---22---0
d---------------------
a---------------------
e---------------------

şözler girer

e-1-1---1-110-1-0-00-1-0-
b-------------------3---3
g--0-202-----0-0------0--
d------------------------
a------------------------
e------------------------

e----01--0--0
b-333---3-13-
g------0-----
d------------
a------------
e------------
na na



Rastgele
Bu içerik için hata bildir



Bilgiler
  • Ekleyen: admin,
  • Katkıda bulunanlar:
  • (Profil sayfanızdan akor gönderebilirsiniz)
Yorumlar
Üye girişi yapmanız gerekmektedir