Erkin Koray - Yalnızlar Rıhtımı - Akor ( Orjinal Ton Kolay )
Akorlar Mobil uygulamasını
Şimdi İndirin






Erkin Koray - Yalnızlar Rıhtımı 5 2
     A                        
 Bir ben miyim perisan gecenin karanliginda 
                  E                     A   
 Yosun tuttu gözlerim yalnizlar rihtiminda  

A Bölümü
               E                   D      
Bütün gece agladim dalgalar kucaginda     
                 E                     A  
Yosun tuttu gözlerim yalnizlar rihtiminda 

                   A                        
 Bir beni mi unuttular uçup gitti martilar  
                  E                     A   
 Geceler ben ve deniz yalnizlar rihtiminda  

 TEKRAR A


 Bas gitar

 Bir ben miyim peri$an...
 G|-----------------1------------------||----------4-4-6-4-|-2---------------|
 D|-----------2-2-4------------2-2-4-2-||------5-6---------|---5-4-2-4-------|
 A|---0-0-3-4----------0-0-3-4---------||--7-7-------------|-----------4 3-0-|
 E|------------------------------------||------------------|-----------------|
   \______4 defa tekrarlanacak_________/ \_____2 defa_____/ \____1 defa_____/


 Butun gece agladim...
 G|-------4-6-4-|---------2---4-2------|------4-6-4-|-2--------------|
 D|---5-6-------|----3-4---------4-2-1-|--5-6-------|---5-4-2-4------|
 A|-7-----------|-5--------------------|7-----------|-----------4-3-0|
 E|-------------|----------------------|------------|----------------|
   \__2 defa___/                        \__2 defa__/


 G|---------4-9-7-6------------2--4-2------|------4-6-4-|-2---------------|
 D|-----5-6---------9-6---3-4---------4-2-1|--5-6-------|---5-4-2-4-------|
 A|---7-----------------5------------------|7-----------|-----------4-3-0-|
 E|----------------------------------------|------------|-----------------|

 aaaaAAAAAAaa......
 G|-----------------1------------------||----------4-4-6-4-|-2---------------|
 D|-----------2-2-4------------2-2-4-2-||------5-6---------|---5-4-2-4-------|
 A|---0-0-3-4----------0-0-3-4---------||--7-7-------------|-----------4 3-0-|
 E|------------------------------------||------------------|-----------------|
   \______4 defa tekrarlanacak_________/ \_____2 defa_____/ \____1 defa_____/

 Yanlizlar Rihtimiiindaaa.....
 G|---------------1--1---------------|
 D|---------2-2-4------5-4-2-4-------|
 A|-0-0-3-4--------------------4-3-0-|
 E|----------------------------------|
  \___$arki bitene kadar calinacak__/



Rastgele
Bu içerik için hata bildir



Bilgiler
  • Ekleyen: admin,
  • Katkıda bulunanlar:
  • (Profil sayfanızdan akor gönderebilirsiniz)
Yorumlar
Üye girişi yapmanız gerekmektedir