Milyonlarca şarkı, En sevdiğiniz Parçalar için Akorlar Alın, Birlikte Çalın
Intro:
 
E-----------------------------
B------x------------x---------
G-----------------------------
D----2----2-------2---2-------     
A--4------------x-------------
E-----------------------------
 
So clear silver moon               )
Wind moves through my room         )
Memories of Saturday               )Like the
Slight turn of the head            )Intro
Eyes down when she said            )
She's goin' away                   )
        C
Goin' away
  D#
I need to know this
 
 
 
F               Gm
  D#m I the fool
D#             A#
  D#m I a victim
F                 Gm
  I'd rather know
D#                A#
  You'd rather kiss him
      F
  Goodnight
     Gm        D#      A#
  Tonight I'm blinded
     F
  I tried
     Gm
  I tried
     [A](let it ring)
  Is this the way
  Is this the way it ends
 
Verse 2:
 
E-----------------------------
B--------x------------x-------
G-----------------------------
D-----2-----2------2-----2----   x6
A--4------------x-------------
E-----------------------------
 
Guitar 2:
 
E------4---------4---------4---7-5-4-5-4------
B--4-5---5---4-5---4---4-5---5----------------
G---------------------------------------------
D---------------------------------------------     
A---------------------------------------------
E---------------------------------------------
 
Dark echoes inside
Can't sleep through the night
All the words I heard you say
(Memories of Saturday)
Fade over the yard
Lay under the stars
Stuck down in this place
             C
Hands on my face
  D#
I need to know this
 
 
 
F               Gm
  D#m I the fool
D#             A#
  D#m I a victim
F                 Gm
  I'd rather know
D#                A#
  You'd rather kiss him
      F
  Goodnight
     Gm        D#      A#
  Tonight I'm blinded
     F
  I tried
     Gm
  I tried
     [A](let it ring)
  Is this the way
              D#
  Is this the way it ends
 
Bridge:
 
Gm
  Get up and chase the vision
                                 D#
  Stand up or watch the world go by
 F
  Ahh, Ahh
Gm
  You've found to feel the reason
                                 D#
  Black clouds are filling up my sky
 F          C
  Ahh, Ahh, Yeah
 
E-------------------------------------------------------x------
B------4------5------2------x------4------5------2------x------
G-------------------------------------------------------1------
D----4------6------2------2------4------6------2--------2------
A--2------4------x------2------2------4------x----------2------
E-------------------------------------------------------x------
 
D#m I the fool
D#m I a victim
I'd rather know
You'd rather kiss him
 
F               Gm
  D#m I the fool
D#             A#
  D#m I a victim
F                 Gm
  I'd rather know
D#                A#
  You'd rather kiss him
      F
  Goodnight
     Gm        D#      A#
  Tonight I'm blinded
     F
  I tried
     Gm
  I tried
     D#
  Is this the way
     D#
  Is this the way it ends
F               Gm
  D#m I the fool
D#             A#
  D#m I a victim
F                 Gm
  I'd rather know
D#                A#
  You'd rather kiss him
      F
  Goodnight
     Gm        D#      A#
  Tonight I'm blinded
     F
  I tried
     Gm
  I tried
     [A](let it ring)
  Is this the way it ends
 
E-----------------x------
B------4----------2------
G-------------4---2------
D----6------4-----2------
A--4------2-------x------
E-----------------x------
Bu içerik için hata bildir
Yorumlar
Üye girişi yapmanız gerekmektedir
Bilgiler
  • Ekleyen: admin,
  • Katkıda bulunanlar:
  • (Profil sayfanızdan akor gönderebilirsiniz)
It Ends akor , It Ends orjinal ton akor , It Ends kolay ton akor