Akorlar Mobil uygulamasını
Şimdi İndirin






Reklam
INTRO:
 
e|------2|------2|-------|-------|
B|----3--|----3--|------3|------2|
G|--2----|--2----|----0--|----0--|  x 2
D|0------|-------|--4----|--2----|
A|-------|4------|2------|1------|
E|-------|-------|-------|-------|
 
e|--------|-------|----------|------------|-------|---|
B|------0-|------0|------0---|----0-------|------2|3-2|
G|----0---|----0--|----0-----|--0---0-----|----0--|---|
D|--4-----|--4----|--2-------|4-----------|--2----|---|
A|2-------|2------|1---------|------------|1------|---|
E|--------|-------|----------|------------|-------|---|
 
B       B/A#            G#m/E    Gdim7
 İnişlerim      çıkışlarım
B        B/A#            G#m/E    Gdim7
 O kendimden     kaçışlarım
B       B/A#            G#m/E    Gdim7
 Gidişlerim      dönüşlerim
            B   B/A#        G#m/E    Gdim7
 İçimdeki  sır         o  kısır
        B   B/A#        G#m/E    Gdim7
döngülerim
 
B       B/A#            G#m/E    Gdim7
 Şarkılarım      sancılarım
B       B/A#            G#m/E    Gdim7
 Kadınlarım     hüsranlarım
B       B/A#            G#m/E    Gdim7
 Dostluklarım      acılarım
         B   B/A#        G#m/E    Gdim7
 İçtiğim su          o pusu
       B   B/A#        G#m/E    Gdim7
duruşlarım
 
F#sus4(b9)-no5        Bb6(b5b9)-no3
 Yarım  kalan  sevgilerim
Em6-no5           B    B/A#
 Uyanmamış sabahlarım
F#sus4(b9)-no5        Gdim7
 Perdesiz      gecelerim
F#.Y
Paramparça oluşlarım
 
B       B/A#            G#m/E    Gdim7
 Yalanlarım     yanlışlarım
B       B/A#            G#m/E    Gdim7
 O arkamdan      bakışlarım
B        B/A#            G#m/E    Gdim7
 Kendime geç      kalışlarım
B   B/A#        G#m/E    Gdim7
 İçtiğim su          o pusu
       B   B/A#        G#m/E    Gdim7
duruşlarım
B       B/A#            G#m/E    Gdim7
 Yokuşlarım     kalışlarım
B       B/A#            G#m/E    Gdim7
 Umutlarım      kaygılarım
B       B/A#            G#m/E    Gdim7
 İnançlarım     gözyaşlarım



Rastgele Reklam
Bu içerik için hata bildir



Bilgiler
  • Ekleyen: admin,
  • Katkıda bulunanlar:
  • (Profil sayfanızdan akor gönderebilirsiniz)
Yorumlar
Üye girişi yapmanız gerekmektedir
Reklam