Milyonlarca şarkı, En sevdiğiniz Parçalar için Akorlar Alın, Birlikte Çalın
INTRO:
 
e------2------2--------------
B----3------3--------3------2
G--2------2--------0------0--  x 2
D0---------------4------2----
A-------4------2------1------
E----------------------------
 
e-----------------------------------------------
B------0-------0------0-------0-------------23-2
G----0-------0------0-------0---0---------0-----
D--4-------4------2-------4-------------2-------
A2-------2------1---------------------1---------
E-----------------------------------------------
 
B       BA#            G#mE    Gdim7
 İnişlerim      çıkışlarım
B        BA#            G#mE    Gdim7
 O kendimden     kaçışlarım
B       BA#            G#mE    Gdim7
 Gidişlerim      dönüşlerim
            B   BA#        G#mE    Gdim7
 İçimdeki  sır         o  kısır
        B   BA#        G#mE    Gdim7
döngülerim
 
B       BA#            G#mE    Gdim7
 Şarkılarım      sancılarım
B       BA#            G#mE    Gdim7
 Kadınlarım     hüsranlarım
B       BA#            G#mE    Gdim7
 Dostluklarım      acılarım
         B   BA#        G#mE    Gdim7
 İçtiğim su          o pusu
       B   BA#        G#mE    Gdim7
duruşlarım
 
F#sus4(b9)-no5        Bb6(b5b9)-no3
 Yarım  kalan  sevgilerim
Em6-no5           B    BA#
 Uyanmamış sabahlarım
F#sus4(b9)-no5        Gdim7
 Perdesiz      gecelerim
F#.Y
Paramparça oluşlarım
 
B       BA#            G#mE    Gdim7
 Yalanlarım     yanlışlarım
B       BA#            G#mE    Gdim7
 O arkamdan      bakışlarım
B        BA#            G#mE    Gdim7
 Kendime geç      kalışlarım
B   BA#        G#mE    Gdim7
 İçtiğim su          o pusu
       B   BA#        G#mE    Gdim7
duruşlarım
B       BA#            G#mE    Gdim7
 Yokuşlarım     kalışlarım
B       BA#            G#mE    Gdim7
 Umutlarım      kaygılarım
B       BA#            G#mE    Gdim7
 İnançlarım     gözyaşlarım
Bu içerik için hata bildir
Yorumlar
Üye girişi yapmanız gerekmektedir
Bilgiler
  • Ekleyen: admin,
  • Katkıda bulunanlar:
  • (Profil sayfanızdan akor gönderebilirsiniz)
İnişlerim Çıkışlarım akor , İnişlerim Çıkışlarım orjinal ton akor , İnişlerim Çıkışlarım kolay ton akor