Akorlar Mobil uygulamasını
Şimdi İndirin






Reklam
capo 2
 
Intro:
   Cm               Fm                  Fm              Cm
E|----------------|-------------------|----------------|------|
H|----------------|-------------------|----------------|------|
G|.---------------|-------------------|----------------|-----.|
D|.---------------|-------------------|----------------|-----.|
A|-5s7-7-7-7--7s5-|-------------------|----------------|-5s7--|
E|----------------|-7-3s5-5-5--7-5--0-|-3s5-5-5--7-5-0-|------|
 
Verse: 1
| Cm | Fm | G# | A# | D# | Cm | Fm | G# | A# | Cm |
 
Chorus:
| G# | Hm | Fm | Cm | G# | A# | Cm | G# | Hm | Fm | Cm | G# | A# | Cm |
 
Bridge:
   Cm               Fm                  Fm              Cm
E|----------------|-------------------|----------------|------|
H|----------------|-------------------|----------------|------|
G|.---------------|-------------------|----------------|-----.|
D|.---------------|-------------------|----------------|-----.|
A|-5s7-7-7-7--7s5-|-------------------|----------------|-5s7--|
E|----------------|-7-3s5-5-5--7-5--0-|-3s5-5-5--7-5-0-|------|
 
Verse: 2
| Cm | Fm | G# | A# | Cm | Cm | Fm | Cm | Fm |
 
Solo:
|: Cm | Fm :|X4
 
Verse: 3
| Cm | Fm | G# | A# | D# | Cm | Fm | G# | A# | Cm |
 
Chorus:
| G# | Hm | Fm | Cm | G# | A# | Cm | G# | Hm | Fm | Cm |: G# | A# | Cm :|



Rastgele
Bu içerik için hata bildir



Bilgiler
  • Ekleyen: admin,
  • Katkıda bulunanlar:
  • (Profil sayfanızdan akor gönderebilirsiniz)
Yorumlar
Üye girişi yapmanız gerekmektedir
  • Zeynep Bastık - Uslanmıyor bu - Akor
  • Tuğçe Kandemir - El Alem - Akor
  • ezhel akor