Milyonlarca şarkı, En sevdiğiniz Parçalar için Akorlar Alın, Birlikte Çalın
Em         Am         D          G          C7
E----0---0-----1---1---------------0---0-----0---0-
B----1---1-----3---3-----3---3-----1---1-----1---1-
G--2---2-----2---2-------4---4---0---0-----2---2---
D----------0-----------5---5-------------3---------
A0-----------------------------3-------------------
E--------------------3-----------------------------
 
 Am         D          B          Em         F# 
E----1---1---------------0---0-----0---0-----1---1-
B----3---3-----3---3-----0---0-----1---1-----3---3-
G--2---2-------4---4---1---1-----2---2-----1---1---
D0-----------5---5---------------------------------
A------------------------------0---------2---------
E----------3---------0-----------------------------
 
 Em         Am         D          G          C7        Am         D
E----0-0-------0-------------------------------------------------------
B--------3-3-1-----3-3---3-3-1-1-0-3---0-1---1-1-0-0---1---0-0---1-0---
G----------------------------------------------------2---------------2-
 
 B          Em         F#          Em         Am         D          G
E----------------------------------0-0-------0-------------------------
B----0101------------------------------3-3-1-----3-3---3-3-1-1-0-3---0-
G2-------2-2---2-------------------------------------------------------
 
 C          Am         D          B          Em         F# 
E------------------------------------------------------------
B1-----01300---1---0-0---1-0-------0-1-----------------------
G----02------2---------------2-2-------2-2---2---------------
 
Em            Am   D            Am
Havada  bulut yok,   bu ne dumandir,
    Em          Am      D    Am
Mahlede ölü yok,   bu ne sivandir,
    Em                Am       D    Am     Am
Su Yemen elle --- ri      ne de yamandir,
 
Em   Am   D         G    C7
Ah o Yemendir, gülü çemendir,
     Am   D         B    Em    F# 
Giden gelmiyor, acep nedendir
Em  Am    D         G    C7
Burasi Mustur, yolu yokustur,
     Am   D         B    Em    F# 
Giden gelmiyor, acep ne istir
 
Em                Am   D            Am
Kislanin   önün - de     redif sesi var,
     Em             Am     D    Am
Bakin çantasin-da      acep nesi var,
        Em             Am       D    Am    Am
Bir çift kunduray-la      bir de fesi var,
 
Em   Am   D         G    C7
Ah o Yemendir, gülü çemendir,
     Am   D         B    Em    F# 
Giden gelmiyor, acep nedendir
Em  Am    D         G    C7
Burasi Mustur, yolu yokustur,
     Am   D         B    Em    F# 
Giden gelmiyor, acep ne istir
Yemen Turkusu akor , Yemen Turkusu orjinal ton akor , Yemen Turkusu kolay ton akor
Bu içerik için hata bildir
Yorumlar
Üye girişi yapmanız gerekmektedir
Bilgiler
  • Ekleyen: admin,
  • Katkıda bulunanlar:
  • (Profil sayfanızdan akor gönderebilirsiniz)