Akorlar Mobil uygulamasını
Şimdi İndirin
Guitar 1: (Palm Mute) C5 D#5 G#5
(Then drums enter here) C5 D#5 G#5 A#5 G#5 G5 G#5 
 
Guitar 2:
e|------0---------0-----|
B|--------2-------------|
G|---2----------2-------|
D|-4--------------------|
A|----------------------|
D|----------------------|
 
Drum Etering:
e|------0--------------------------0-----------|------------|
B|--------2---------2h3p2----------------------|-------2----|
G|---2---------2---------------2-2-----1h2p1---|-----1----2-|
D|-4---------4----2--------4-----------------4-|-4----------|
A|---------------------------0-------4---------|------------|
D|---------------------------------------------|------------|
 
Verse 1:
   C5                 D#5
My hands are searching for you
   G#5
My arms are outstretched towards you
  C5            D#5
I feel you on my fingertips
   G#5                  C5  D#5  G#5
My tongue dances behind my lips for you
     C5         D#5
This fire rising through my being
G#5                      G5  D#5
Burning I'm not used to seeing you
 
Refrain:
D5 D#5
          I'm alive
D5 D#5             G#5
          I'm alive
Guitar 2:
e|-0--4--2--4--0--4--2--4--|
B|-------------------------|
G|-------------------------| (x3)
D|-------------------------|
A|-------------------------|
D|-------------------------|
 
Chorus:
C5            D#5
I can feel you all around me
G#5    A#5       G#5      G5
Thickening the air I'm breathing
C5           D#5
Holding on to what I'm feeling
A#5            G5              G#5
Savoring this heart that's healing
 
Verse 2:
   C5             D#5
My hands float up above me
    G#5
And you whisper you love me
    C5        D#5
And I begin to fade
  G#5
Into our secret place
    C5            D#5
The music makes me sway
    G#5                         C5 
The angels singing say we are alone with you
      G#5       C5   D#5   G#5
I am alone and they are too with you
         C5   D#5   G#5  
And so I cry
    C5   D#5   G#5  
The light is white
 C5   D#5   G#5  
And I see you
 
(Repeat Refrain and Chorus)
 
Bridge: (Sing these lines faster)
C5
Take my hand I give it to you
    D#5
Now you owe me All I am
G#5                 A#5
You said you would never leave me
G#5            G5
I believe you I believe
 
Chorus 2:
C5            D#5
I can feel you all around me
G#5    A#5       G#5      G5
Thickening the air I'm breathing
C5           D#5
Holding on to what I'm feeling
A#5            G5             G#5
Savoring this heart that's healed



Rastgele
Bu içerik için hata bildir



Bilgiler
  • Ekleyen: admin,
  • Katkıda bulunanlar:
  • (Profil sayfanızdan akor gönderebilirsiniz)
Yorumlar
Üye girişi yapmanız gerekmektedir