Güllü - Değmezmiş Sana - Akor ( Orjinal Ton Kolay )
Akorlar Mobil uygulamasını
Şimdi İndirin






---------------------------------------------------------
---------------------------------------------------------
---------------------------------------2-4-2------------------
---------2-4-5--4-4-5-4--2-4--4-5---------5-4--------------
-2-3-5---------------------------------------------------
---------------------------------------------------------
 
-------------------------------------------------------
-------------------------------------------------------
-----------------------------------------2------------
---------2-4-5-4-4-5-4-2-4--2-4-5---5-4-2----------------
-2-3-5-------------------------------------------------
-------------------------------------------------------
 
--------------------------------------------------------
--------------------------------------------------------
--------------------------------------------------------
----------2-4-2-2-4-2--2----2-4-5--4-2-------------------
---2-3-5---------------5--5---------------5-------------
-5------------------------------------------------------
 
--------------------------------------------------------
--------------------------------------------------------
--------------------------------------------------------
-------2-4-2-------------2--------------------------------
-3-5--------5-3--2-3-5---5-3-2--------------------------
--------------------------------------------------------
 
Em              F          Em
Aklima Gelmezdi Ayrilacagim
F                G         F
Bu Askin Sonunda Aglayacagim
G               F
Düsündükçe Seni Çildiracagim
Am             Dm / F       Em
Bosuna Sevmisim Degmezmis Sana
 
Em              F           Em
En Büyük Hatayi Sende Yapmisim
F                G           F
O Tas Kalbinde Ben Ask Aramisim
G                F
Demekki Yillarca Bosa Yanmisim
Am            Dm / F          Em
Bosuna Sevmisim Degmezmis Sana
 
Em              F           Em
İki Yüzlüymüssün Farkedemedim
F               G           F
Yalanmis Sözlerin Hissedemedim
G               F
Ne Yaptim Sa Sana Kiymet Bilmedin
Am            Dm / F          Em
Bosuna Sevmisim Degmezmis Sana
 
Am             Em
Degmezmis Sana Degmezmis Sana
F              Em
Bosuna Sevmisim Degmezmis Sana



Rastgele
Bu içerik için hata bildir



Bilgiler
  • Ekleyen: admin,
  • Katkıda bulunanlar:
  • (Profil sayfanızdan akor gönderebilirsiniz)
Yorumlar
Üye girişi yapmanız gerekmektedir