Guns and Roses - Knockin' On Heaven's - Akor ( Orjinal Ton Kolay )
Akorlar Mobil uygulamasını
Şimdi İndirin






C5         G               Dm
Mamma take this badge from me
C5         G         F
I can't use it anymore
C5                G             Dm
It's getting dark, too dark to see
C5             G                       F
Feels like I'm knockin' on heaven's door
 
Chorus (if you're really concerned about playing it like the
        CD, listen to it for rhythm.  But this song has been done by so
        many people so differently that you might as well give it your own
        feel.)
C5            G5                     F5
Knock, knock, knockin' on heaven's door,
F5
Hey, hey, hey, hey, yeah
C5            G5                     F5
Knock, knock, knockin' on heaven's door,
F5
(no lyrics)
C5                 G5                     F5
Ooh, knock, knock, knockin' on heaven's door
F5
Ooh yeah
C5            G5                     F5
Knock, knock, knockin' on heaven's door
F5
Hey, hey, hey, hey, yeah
 
First Guitar Solo
C                  G          F
------------------------------------------------------
----^^---P---------15--^------~~~~~~~~~~~~------------
-12-14-14-12-14-------14-12-12-------------------12---
------------------------------------------13/14-------
------------------------------------------------------
------------------------------------------------------
C                     G           F
---------------P------------P--------P------------------15----
15/17---15---13-12-13/15--13-12---13--12----------12-13----13-
-------------------------------------------~~~~~~~------------
-----------------------------------------14-------------------
--------------------------------------------------------------
--------------------------------------------------------------
C              ^^  G   ^^  ^^  F
--~~~-------15-17--17--17--17--15-----------------------------
12---15/17----------------------------------------------------
--------------------------------------------------------------
--------------------------------------------------------------
--------------------------------------------------------------
--------------------------------------------------------------
C ^^              ^^ G             F
--20-20-19-20--19-20--20-20-20---~~~~~----------------------------------
-------P-----------------------17------^^----^^-------------------------
---------------------------------------19-19-19-19-^-----^--------------
---------------------------------------------------19-19-19-19----------
---------------------------------------------------------------17--17---
------------------------------------------------------------------------



Rastgele
Bu içerik için hata bildir



Bilgiler
  • Ekleyen: admin,
  • Katkıda bulunanlar:
  • (Profil sayfanızdan akor gönderebilirsiniz)
Yorumlar
Üye girişi yapmanız gerekmektedir