Hariçten Gazelciler - Kendimden Geçtim Ama - Akor ( Orjinal Ton Kolay )
Akorlar Mobil uygulamasını
Şimdi İndirin






E|---------------------------------------------
B|---------------------------------------------
G|---------------------------------------------
D|---------------------------------------------
A|-5h8-5h8-7-5-----------5h8-5h8-7-5-8/10-8-7-5
E|-------------8-------------------------------
 
E|---------------------------------------------
B|---------------------------------------------
G|---------------------------------------------
D|---------------------------------------------
A|-5h8-5h8-7-5-------------------------5--8-7-5
E|-------------8--8-7-8--8-7-5-7-5-7-8---------
 
E|---------------------------------------------
B|---------------------------------------------
G|---------------------------------------------
D|---------------------------------------------
A|-5h8-5h8-7-5-----------5h8-5h8-7-5-8/10-8-7-5
E|-------------8--8-7-8------------------------
 
E|---------------------------------------------
B|---------------------------------------------
G|---------------------------------------------
D|---------------------------------------------
A|-5h8-5h8-7-5-------------------------5--8-7-5
E|-------------8--8-7-8--8-7-5-7-5-7-8---------
 
Em               D
kendimden geçtim ama
Em              (D)A
olamadım bir tek seeen
Em               D
sen benden vazgeçtiysen
           Em
ne olsam nafile
                D
sen benden vazgeçtiysen
             Em
ölsem bile beyhude
 
ne kaştayım ne gözde
ne işve ne cilvede
tebessümün güneştir
onu da esirgeme
tebessümün güneştir
güneşi küçümseme
 
gönül bir muammadır
eremedim sırrına
bıraktım öyle kalsın
nerede yanarsa yansın
bıraktım öyle kalsın
alevi solmasın
bıraktım öyle kalsın
bıraktım öyle yansın



Rastgele
Bu içerik için hata bildir



Bilgiler
  • Ekleyen: admin,
  • Katkıda bulunanlar:
  • (Profil sayfanızdan akor gönderebilirsiniz)
Yorumlar
Üye girişi yapmanız gerekmektedir