Em           F
e-----------------------------
E-----------------------------
C-4--5p4-------4h5-5-4-5-7-5--
G---------7-7-----------------
D-----------------------------
A-----------------------------
   Em
e------------7------------7---
E-----------------------------
C--4(5)trill----4(5)trill---4-
G-----------------------------
D-----------------------------
A-----------------------------
  Em            F
e-----------------------------
E-----------------------------
C-4-5p4---------4h5-5-4-5-7-5-
G-------7-7-7-7---------------
D-----------------------------
A-----------------------------
 
   Em
e------------7------------7---
E-----------------------------
C--4(5)trill----4(5)trill---4-
G-----------------------------
D-----------------------------
A-----------------------------
   G
e-----------------------------
E----5-7-8-7---5-5-8-7-7-5----
C--7------------------------7-
G-----------------------------
D-----------------------------
A-----------------------------
   G
e-----------------------------
E----5-7-8-7---5-5-7-5-7-5----
C--7-----------------------7--
G-----------------------------
D-----------------------------
A-----------------------------
   G
e-----------------------------
E---5--7-7--8-7--5-5-8-7-7-5--
C-7--------------------------7
G-----------------------------
D-----------------------------
A-----------------------------
 
e--------5--------------------
E---5--7---8-7--5-5-8-7-7-5---
C-7-------------------------7-
G-----------------------------
D-----------------------------
A-----------------------------
  F
e-----------------------------
E-----------------------------
C-4h5-5-5-5-5-----------------
G-----------------------------
D-----------------------------
A-----------------------------
  G      F      Dm
e-----------------------------
E-77-8-7-55-7-5-33-5-3--------
C-----------------------------
G----------------------5-5-7-4
D-----------------------------
A-----------------------------
 
BAŞD DÖN
 
Am                       G   F       Em
Yandı bağrım yandı aşkın elinden vay vay
Am                     G    F    Dm        Em
Bir de sen yakıp gönderme beni beni beni beni
G                 
Ben mecnun olmuşum sevda çölünde
C                     Am   G    F    Em   Dm        Em
Yeniden mecnuna dönderme beni beni beni beni beni beni
 
İnsan olan insan sever insanı
Bizden evvel gelip gidenler hanı
Aşkına düşürüp mecnunu misali
Rastgele
Bu içerik için hata bildir
Bilgiler
  • Ekleyen: admin,
  • Katkıda bulunanlar:
  • (Profil sayfanızdan akor gönderebilirsiniz)
Yorumlar
Üye girişi yapmanız gerekmektedir