Mabel Matiz - Ninni - Akor ( Orjinal Ton Kolay )
Akorlar Mobil uygulamasını
Şimdi İndirin






--------12--10------------------------------------------------
-10--10--------12---13---10--12--13--12-----------------------
-----------------------------------------12-------------------
--------------------------------------------------------------
--------------------------------------------------------------
--------------------------------------------------------------
 
--------12--10------------------------------------------------
-10--10--------12---13---10--12--13--12-----------------------
--------------------------------------------------------------
--------------------------------------------------------------
--------------------------------------------------------------
--------------------------------------------------------------
 
----------------------------------------10------10------------
--10--10--12-------------10~12--12--13------13----------------
-------------13--12--13---------------------------------------
--------------------------------------------------------------
--------------------------------------------------------------
--------------------------------------------------------------
 
----------------------------------------10------10------------
--10--10--12-------------10~12--12--13------13----------------
-------------13--12--13---------------------------------------
--------------------------------------------------------------
--------------------------------------------------------------
--------------------------------------------------------------
 
Em                    Bm
Ah o da senin gibi bir anne kuytusunda )x2
C         D      Em                    )
Uyumuştur mahmur temiz                 )
 
C                   D
Al sen de büyüyorsun günbegün acele    )x2
C         D       Em                   )
Küçük bir kızı üzmeye                  )
 
Em                  Am
Söz ver bana bebeğim söz ver ak sütüm için
C       D           Em
Hiç korkmadan seveceksin
Em                   Am
Neden hoyrat bu kadar neden kırılır kalpler
C          D            Em
Nasıl can yakar bu küçük eller
Em                  Am
Söz ver bana bebeğim söz ver ak sütüm için
C      D           Em
Korkmaksızın seveceksin
Em                   Am
Neden hoyrat bu kadar neden kırılır kalpler
C          D            Em
Nasıl can yakar bu küçük eller
Em                   Am
Neden hoyrat bu kadar neden kırılır kalpler
C          D            Em
Nasıl can yakar bu küçük eller...



Rastgele
Bu içerik için hata bildir



Bilgiler
  • Ekleyen: admin,
  • Katkıda bulunanlar:
  • (Profil sayfanızdan akor gönderebilirsiniz)
Yorumlar
Üye girişi yapmanız gerekmektedir