Marilyn Manson - Last Day On Earth Live - Akor ( Orjinal Ton Kolay )
Akorlar Mobil uygulamasını
Şimdi İndirin






D---2--------3--------*--------0------------0---------------7-------------5---------3---------2--------
A---3--------0--------*--------1------------1---------------7-------------5---------3---------2--------
F---4--------0--------*--------2------------2---------------9-------------7---------5---------4--------
C---4--------0--------2--------2------------3---------------9-------------7---------5---------4--------
G---2--------2--------2--------0------------3---------------7-------------5---------3---------2--------
D---2--------3--------0--------*-------------*---------------7-------------5---------3---------2--------
 
   Am       F      Dm     Gm       D#maj7        Dsus      Csus     A#sus   Asus
 
Intro Riff
 
D--0h2----9------9------0h2------9~----------------
A-------------0------0------------------------------
F-------0------0-----------------0--------------------
 
Am   F   Dm  (3 times) (listen to song for strumming patterns)
 
On the third time, instead of playing Em, play Esus.
 
Csus   A#sus    Asus (once)
 
Verse
 
Gm       F            D#maj7     F
Yesterday was a million years ago
Gm         F     D#maj7             F
In all my past lives I played an asshole
Gm          F     D#maj7        F
Now I found you, it's almost too late
Gm   F        D#maj7          F
And this earth seems obliviating
Gm      F     D#maj7           F
We are trembling in our crutches
Gm     F         D#maj7        F
High and dead our skin is glass
Gm       F      D#maj7      F
And I'm so empty here without you
Gm         F       D#maj7
I crack my Xerox hands
 
Chorus
 
Am         F           Dm
I know it's the last day on earth
 
We'll be together while the planet dies
 
I know it's the last day on earth
 
Csus         A#sus          Asus
 
We'll never say goodbye
 
Verse
 
And the dogs slaughter each other softly
 
Love burns its casualties
 
We are damaged provider modules
 
Spill the seeds at our children's feet
 
And I'm so empty here without you
 
I know they want me dead
 
Chorus
 
I know it's the last day on earth
 
We'll be together while the planet dies
 
I know it's the last day on earth
 
We'll never say goodbye
 
Repeat little riff twice .
 
I know it's the last day on earth
 
We'll be together while the planet dies
 
I know it's the last day on earth
 
We'll never say goodbye
 
I know it's the last day on earth
 
We'll be together while the planet dies
 
I know it's the last day on earth
 
We'll never say goodbye
 
We'll never say goodbye
 
(Do this last one slowing down)
 
We'll never say goodbye



Rastgele
Bu içerik için hata bildir



Bilgiler
  • Ekleyen: admin,
  • Katkıda bulunanlar:
  • (Profil sayfanızdan akor gönderebilirsiniz)
Yorumlar
Üye girişi yapmanız gerekmektedir