intro riff 1
e|---
B|---
G|---
D|---
A|-3--3-3--6-5-4-3--3--3-3-6-5-4-3-3--3-3-6-5-4-3-|
E|-1--1-1--4-3-2-1--1--1-1-4-3-2-1-1--1-1-4-3-2-1-|
 
intro riff 2
e|------------------------------------------------|
B|------------------------------------------------|
G|------------------------------------------------|
D|------------------------------------------------|
A|-3--3-3--6-5-4-3--3--3-3-6-5-4-3-3--3-3-6-5-4-3-|
E|-1--1-1--4-3-2-1--1--1-1-4-3-2-1-1--1-1-4-3-2-1-|
 
riff 1                              riff 2
e|-----------------------------|    |-----------------------|
B|-----------------------------|    |-----------------------|
G|-----------------------------|    |-----------------------|
D|------------------------9~~--|    |-3----3----3--3--3--3--|
A|-3--3-3--6-5-4-3-------------|    |-3----3----3--3--3--3--|
E|-1--1-1--4-3-2-1--4--5-------|    |-1----1----1--1--1--1--|
                                      .    .    .  .  .  .
riff 3
e|-------------------------------------|
B|-------------------------------------|
G|-------------------------------------|
D|--6--5--6--5--6--5--6--5-------------|
A|--4--3--4--3--4--3--4--3-------------|
E|-------------------------------------|
                         .
 
  riff 4
e|-------------------------------|
B|-------------------------------|
G|----------------------------5--|
D|-----------2~~3~~2~~--------5--|
A|--4~~3~~4~~---------4~3~4~~~3--|
E|-------------------------------|
                              .
 
solo riff
                  X5
e|------------------|------------------------|
B|------------------|------------------------|
G|------------------|------------------------|
D|------------------|--6--5--6--5--6--5--6--5|
A|-3--3-3--6-5-4-3--|--4--3--4--3--4--3--4--3|
E|-1--1-1--4-3-2-1--|------------------------|
                                            .
solo
e|----------------------------|
B|--16--------16-------16-----|
G|--15b(17)---15b(17)r(15)p13-|
D|-0---------0----------------|
A|----------------------------|
E|----------------------------|
PM .      PM .
 
e|----------------------------------------------------|
B|----16---------16---------16--------16--------------|
G|----15b(16)----15b(16)----15b(16)---15b(17)r(15)p13-|
D|-000--------000--------000-------000----------------|
A|----------------------------------------------------|
E|----------------------------------------------------|
PM ...     PM ...     PM ...    PM ...
 
e|---------------------------|
B|--16------16-------16-15---|
G|--15b(17)-15b(17)--15(17)--|
D|---------------------------|
A|---------------------------|
E|---------------------------|
 
           x7
e|------------|---|
B|------------|---|
G|------------|---|
D|------------|---|
A|--11-10-9-8-|-8~|
E|------------|---|
 
e|-------------12~13~12~---------------------------------------------------|
B|--14~-13~-14~---------14~13~14~--0h13-14p0-0h13-14p0-0h13-14p0-0h13-14p0-|
G|-------------------------------------------------------------------------|
D|------
A|------
E|------
 
PM.. :mute
.    :dot(kısa nota)
b    :bend(gerdirme)
r    :realise(gevsetme)
p    :pull off
h    :hammer on
 
intro riff 1
intro riff 2
riff 1x4
riff 2
(sözler)
riff 1x2
riff 2
riff 1x2
riff 2
riff 1x2
riff 2
(nakarat)
riff 3 riff 4
(sözler)
riff 1x2
riff 2
riff 1x2
riff 2
riff 1x2
riff 2
(nakarat)
riff 3 riff 4
(solo)
solo riff solo
(nakarat)
riff 3 riff 4
Rastgele
Bu içerik için hata bildir
Bilgiler
  • Ekleyen: admin,
  • Katkıda bulunanlar:
  • (Profil sayfanızdan akor gönderebilirsiniz)
Yorumlar
Üye girişi yapmanız gerekmektedir