Mehmet Erdem - Geri Dönme - Akor ( Orjinal Ton Kolay )
Akorlar Mobil uygulamasını
Şimdi İndirin






1. Kısım;

F# - |----------------------------------|
C# - |----------------------------------|
A - |-------4--4-4--4-5-5-4-4-2-2-0----|
E - |--2--2----------------------------|
B - |----------------------------------|
F# - |----------------------------------|

2. Kısım;

F# - |----------------------------------|
C# - |----------------------------------|
A - |-------2--2-2--2-4-4-2-2-0-0------|
E - |--3--3-----------------------3----|
B - |----------------------------------|
F# - |----------------------------------|

3. Kısım;

F# - |----------------------------------|
C# - |-----------------5-5--------------|
A - |-------4--4-4--4----4-4-2-2-0-----|
E - |--2--2----------------------------|
B - |----------------------------------|
F# - |----------------------------------|

4. Kısım;

F# - |----------------------------------|
C# - |----------------------------------|
A - |-------2--2-2--2-4-4-2-2-0-2-4----|
E - |--3--3----------------------------|
B - |----------------------------------|
F# - |----------------------------------|

5. Kısım;

F# - |----------------------------------|
C# - |-----------------5-5--------------|
A - |--5--5-5--5-5--4-----4-4-2-2-0----|
E - |----------------------------------|
B - |----------------------------------|
F# - |----------------------------------|

6. Kısım;

F# - |----------------------------------|
C# - |----------------------------------|
A - |--0---2-0--4-0----0-0----0-2-4----|
E - |---------3----3-3-----3-2---------|
B - |----------------------------------|
F# - |----------------------------------|

7. Kısım;

F# - |----------------------------------|
C# - |-----------------5-5--------------|
A - |--5--5-5--5-5--4-----4-4-2-2-0----|
E - |----------------------------------|
B - |----------------------------------|
F# - |----------------------------------|

8. Kısım;

F# - |----------------------------------|
C# - |----------------------------------|
A - |--0---2-0--4-0--------------------|
E - |---------3----3-3-5-5-3-2---------|
B - |----------------------------------|
F# - |----------------------------------|



Rastgele
Bu içerik için hata bildir



Bilgiler
  • Ekleyen: admin,
  • Katkıda bulunanlar:
  • (Profil sayfanızdan akor gönderebilirsiniz)
Yorumlar
Üye girişi yapmanız gerekmektedir