Moğollar - Selvi Boylum Al Yazmalım - Şarkı Sözü
Akorlar Mobil uygulamasını
Şimdi İndirin






Moğollar - Selvi Boylum Al Yazmalım 5 1
e------12-11-12--9~~I--9----9---------I
A-------------------I----10---12-12~~-I
F--11~~-------------I-----------------I
C-------------------I-----------------I )
)
e---------------I-------------- ) x2
A-12-12--9-10---I-9-10-12-9---- )
F------------11-I-----------11-
C---------------I--------------

e-------------9--------I----------------------I
A-9h10-12-12~--12-12---I-9-10-10-9-10-12-9----I
G~---------------------I------------------11~~I
C----------------------I----------------------I )
)
e--------------------I------------------ ) x2
A---10-10-9-10-12-9~~I------------------ )
F--9-----------------I-11-11~~11-11-11~~
C--------------------I------------------



Rastgele
Bu içerik için hata bildir



Bilgiler
  • Ekleyen: admin,
  • Katkıda bulunanlar:
  • (Profil sayfanızdan akor gönderebilirsiniz)
Yorumlar
Üye girişi yapmanız gerekmektedir