>
E---5-7-8-7-----5-7-8-12-10-7-3-0-1-3------------
B-----------8-5----------------------------------
G------------------------------------------------
D------------------------------------------------
A------------------------------------------------  
E------------------------------------------------
 
Fm               Cm
Aşkın içinde bir aşk aradık
Fm              Cm
Doğru yolu bir türlü bulamadık
Cm                          C#
Asıl olan sendin bendim biz çok karıştık
Cm                                C#
İki cümleyle her şeyin geçeceğini sandık
C#                        D#
Ayrı ayrı dünyalara biz çok alıştık
Fm                Cm
Sevmesin sarmasın beni sen gibiler
Fm                Cm
Görmesin duymasın kimse sesimi
C#         D#
Kırıldım çok yoruldum
C#               D#
Aşkı yaşamadan aşka doydum
 
E--1-0-1-0-------1-0-1-0------------------------------------------
B-----------------------------------------------------------------
G----------2-4-5---------2-2-4-5-7-4-0-5-2------------------------  
D------------------------------------------3-  2.tur-5-3-2--------
A-----------------------------------------------------------------
E-----------------------------------------------------------------


Bu içerik için hata bildir
Rastgele
Bilgiler
  • Ekleyen: admin,
  • Katkıda bulunanlar:
  • (Profil sayfanızdan akor gönderebilirsiniz)
Yorumlar
Üye girişi yapmanız gerekmektedir
Aşka Doydum akoru , Aşka Doydum orjinal ton akor , Aşka Doydum kolay ton akoru