Akorlar Mobil uygulamasını
Şimdi İndirin






Reklam
E|----------------|---------------|------------5----|---------5.----------|
B|--6-5-------6-5-|-6-5-------6-5-|--6-5---------8--|--6-5---5----8-6-5---|
G|------7-5-7.----|-----7-5-3.----|------7-5-7.-----|------7------------6-|
D|----------------|---------------|-----------------|---------------------|
A|----------------|---------------|-----------------|---------------------|
E|----------------|---------------|-----------------|---------------------|
 
E|----1-0-1---------1-0-1---|----------1-0-1---------1-0-1-----|
B|----------3-------------3-|----------------3-------------3---|
G|---2-------------2--------|----------------------2-----------|
D|--------------------------|--------3-------------------------|
A|--0-------------0---------|-------3-------------0------------|
E|--------------------------|----------------------------------|
 
Bir, aşkın zehir
İçip durdum ama hala ölmedim
 
F5           G5
Git gönlün bilir..
D5              Eb5
Hadi git ömrüm kefil
    F5              G5
Senden vazgeçemem sanma
 
E|-------------|
B|--6-5--------|
G|------7-5--5-|
D|-------------|
A|-------------|
E|-------------|
 
        Gm
Anlatma yar yerinde dururum
          Eb
Öyle bir aşkı bende bulurum
         Cm
Aşkın değil şu sözler onurum
          D
Gönlün kadar konuş avunurum..!!
 
Az, bana çok az
Ne olur biraz daha onlaa kal
Bir, aşkın zehir
İçip durdum ama hala ölmedim
 
Git gönlün bilir..
Hadi git ömrüm kefil
Sende vazgeçemem sanma
 
Anlatma yar yerinde dururum
Öyle bir aşkı bende bulurum
Aşkın değil şu sözler onurum
Gönlün kadar konuş avunurum..!!



Rastgele Reklam
Bu içerik için hata bildir



Bilgiler
  • Ekleyen: admin,
  • Katkıda bulunanlar:
  • (Profil sayfanızdan akor gönderebilirsiniz)
Yorumlar
Üye girişi yapmanız gerekmektedir
Reklam