Murat Yılmazyıldırım - Ben Sana Ölüyorum - Akor ( Orjinal Ton Kolay )
Akorlar Mobil uygulamasını
Şimdi İndirin






Intro
 
E|--I-----------5-------------------I-----------5-----------------
B|--I-5-6-8-6-8--8-6-6-5-5----------I-5-6-8-6-8--8-6-6-5-5--------
G|--I---------------------7-7-5-5---I----------------------7-7-5-5
 
E|--------------------------------------------------------------
B|---------------5-8-6-5-----5/6-5------------------------------
G|------------3/5-------7-5-5-----7-5-5---7/5----------5--------
D|-7/8-8-8-7-5-------------------------8-7---8/7--5-7-8--5-7-8-7
 
E|------------------5-6-5----------
B|------------5-6-8------865-------
G|--------5-7---------------75-----
D|----7-8----------------------8-7-
 
D|-----------10-----8----------7---8-8--
A|---7--8--10--10--8-8--------7-7---7---
E|--5--6--8-------6----------5----5-----
   D  ğardım     güneş yeliyle
   Sa rıldım     ay    tülüyle
 
D|-----------12----10---10--10----
A|---8--10-12----10--10---10------
E|--6--8--10----8------8----5-----
   Ö  rüldüm   saçının teliyle
 
D|------------10---------------7---8-8--
A|---7---8--10--10------------7-7---7---
E|--5---6--8--------10-8-6--5----5------
   Ben sa na       ö  lüyo rum
 
Gm                 D
Goncaynım sana açıldım
D                   Eb
Aralık bıraktım sinemi
Eb
Sinemde rüzgar
D
Saçlarından düşerdim
Gm                    D
Bekledim teninin ateşini
D             Eb
Ateşinde yakardım
Eb
Sonsuza yol alacak olan
D
Sevdalar fenerini



Rastgele
Bu içerik için hata bildir



Bilgiler
  • Ekleyen: admin,
  • Katkıda bulunanlar:
  • (Profil sayfanızdan akor gönderebilirsiniz)
Yorumlar
Üye girişi yapmanız gerekmektedir