Akorlar Mobil uygulamasını
Şimdi İndirin






Reklam
Intro:
 
E|-------------------------------------------------------
B|-------------------------------------------------------
G|-------------------------------------------------------
D|-----------------/-7--5--3--2^3^2----2-----------------
A|-5-7---8---7-5~--------------------4---4--1^4^1^0^1^0--
E|-------------------------------------------------------
 
E|-------------------------------------------------------
B|--------------------------------------14~~-------------
G|--------------------6B|---7^9-10--9--7/12~~-------------
D|-/-7--5--7B|----7--5------------------------------------
A|-------------------------------------------------------
E|-------------------------------------------------------
 
Verse 1:
 
Gsus4      Gm                D7
Passing by   you light up my darkest skies
                 Cm      Gdim         D7
You'll take only seconds   to draw me in
  Gsus4     Gm            D7
So be mine
         Cm     Gdim    D7
and you innocence  I will consume
 
Chorus 1:
 
Gm                     D7
Darkshines bringing me down
          Cm               Eb
making my heart feel sore
                 D7
Cause it's good
 
Solo 1
 
E|-------------------------------
B|-10----10-8-6--5-6^5---5-------
G|---------------------7---------
D|-------------------------------
A|-------------------------------
E|-------------------------------
 
E|------------------------------------
B|-10-8-6-5---6^5--3---3-5-6--5--3--2-
G|------------------------------------
D|------------------------------------
A|------------------------------------
E|------------------------------------
 
Verse 2:
 
Gsus4           Gm            D7
Hold your hands    up to your eyes again
              Cm          Gdim            D7
hide from the scary scenes   suppress you fears
  Gsus4     Gm            D7
So be mine
         Cm     Gdim    D7
and you innocence I will consume
 
Chorus 2:
 
Gm                     D7
Darkshines bringing me down
          Cm               Eb
making my heart feel sore
                 D7
Cause it's good
Gm                     D7
Darkshines bringing me down
          Cm               Eb
making my heart feel sore
                 D7
Cause it's good
 
Solo 2
 
E|--------------------------------
B|-/-11---/-11-10-8-6-------------
G|--------------------7----------- x2
D|----------------------7--7-6-7--
A|--------------------------------
E|--------------------------------
 
E|-/-13-/-14-/-15-13^11-10-------------------------------
B|------------------------------------------------10~~---
G|-----------------------------4~~---7~~---10~~----------
D|------------------------6~~----------------------------
A|-------------------------------------------------------
E|-------------------------------------------------------
 
E|-------------------------------------------------------
B|-----5-------------------------------------------------
G|---7------9B|---7--9B|--7----------9----9B|--7--9B|--7-----
D|-8----------------------7--7-6-7-------------------7---
A|-------------------------------------------------------
E|-------------------------------------------------------
 
E|-------------------------------------------------------
B|-------------------------------------------------------
G|-----------------------------------13----13--14--------
D|---------7--8--11^12----12^14---15----15---------------
A|-7^8-10------------------------------------------------
E|-------------------------------------------------------
 
E|-------------------------------------------------------
B|-14^15^14-11-14-11^10---10^11-14^15^14-11--14-11^10----
G|-------------------------------------------------------
D|-------------------------------------------------------
A|-------------------------------------------------------
E|-------------------------------------------------------
 
E|-------------------------------------------------------
B|-10-10-/-8-/-6-/-5-/-3---------3-3^5^6^5---------------
G|-------------------------------------------7----7------
D|-------------------------------------------------------
A|-------------------------------------------------------
E|-------------------------------------------------------
 
Outro:
 
Gm                     D7
Darkshines bringing me down
          Cm               Eb
making my heart feel sore
                 D7
Cause it's good



Rastgele Reklam
Bu içerik için hata bildir



Bilgiler
  • Ekleyen: admin,
  • Katkıda bulunanlar:
  • (Profil sayfanızdan akor gönderebilirsiniz)
Yorumlar
Üye girişi yapmanız gerekmektedir
Reklam