Akorlar Mobil uygulamasını
Şimdi İndirin
Intro:
E|-------3-8--8--7--7--5----5-3-----------------------------
B|---5-6------------------------6-5--5----------5---5-5-3---
G|-------------------------------------4--4--5----5-------5-
D|----------------------------------------------------------
A|----------------------------------------------------------
E|----------------------------------------------------------
 
E|----1-----------
B|----------3/5-5-
G|-2----2-1-------
D|----------------
A|----------------
E|----------------
 
 
G       Em     D           C
i can't remember when it was good
           G    Bm    Em
moments of happiness elude
     C         Cm    G
maybe i just misunderstood
 
G        Em      D      C
all of the love we left behind
             G           Bm   Em
watching the flash backs intertwine
         C      Cm    G
memories i will never find
 
                 Em   D     C
so i`ll love whatever you become
               G        B            Em
and forget the reckless things we've done
            C          Cm     G
i think our lives have just begun
            C          Cm     B
i think our lives have just begun
 
    E            Am
and i'll feel my world crumbling
E            Am
i'll feel my life crumbling
E            Am              E
i'll feel my soul crumbling away
            Em
and falling away
  C       D       G
falling away with you
 
staying awake to chase a dream
tasting the air you're breathing in
i know i won't forget a thing
 
promise to hold you close and pray
watching the fantasies decay
nothing will ever stay the same
 
all of the love we threw away
all of the hopes we cherished fade
making the same mistakes again
making the same mistakes again
 
and i'll feel my world crumbling
i'll feel my life crumbling
i'll feel my soul crumbling away
and falling away
falling away with you
 
all of the love we've left behind
watching the flash backs intertwine
memories i will never find
memories i will never find



Rastgele
Bu içerik için hata bildir



Bilgiler
  • Ekleyen: admin,
  • Katkıda bulunanlar:
  • (Profil sayfanızdan akor gönderebilirsiniz)
Yorumlar
Üye girişi yapmanız gerekmektedir