Müslüm Gürses - Senden Vazgeçmem - Akor ( Orjinal Ton Kolay )
Akorlar Mobil uygulamasını
Şimdi İndirin






Müslüm Gürses - Senden Vazgeçmem 2 2
E||-----------------------------|--------------------------------|
B||--6--5--6--5-----------5-----|--6--5--6--5--------------------|
G||--------------7--5--7-----7--|--------------7--5--7--5--3--3--|

E||--------------------------------|---------------------------|
B||--8--6--8--6--5-----5--6--5--5--|--3--5--5--3--3--1--1------|
G||-----------------7--------------|-----------------------3--3|

E||---------------------||
B||---------------------||
G||3--5--3--3--2--3--2--||

Fm                Gb
Umrumda değil yaşamak ölmek
     Fm              Gb
Canımdan geçerim, senden vazgeçmem
     Ebm         Gb
Olur mu aşkı bir anda silmek
  Fm              Gb           Fm
Canımdan geçerim, senden vazgeçmem

Bbm                       Gb
Dünya tersine dönse vazgeçmem
Fm               Ab
Gökteki güneş sönse vazgeçmem
Bbm            Ab     Bbm
Sensizlik inan ki ölümden beter
Ab   Bbm          Db        Gb
Canımdan geçerim, senden vazgeçmem
Ab                Ebm         Bbm
Senden vazgeçmem, ölsem vazgeçmem

Fm                    Gb
Artık bundan sonra sensiz olamam
   Fm                Gb
Kendime başka bir dünya kuramam
   Ebm             Gb
Mümkün değil benim sensiz yaşamam
     Fm          Gb           Fm
Canımdan geçerim senden vazgeçmem



Rastgele
Bu içerik için hata bildir



Bilgiler
  • Ekleyen: admin,
  • Katkıda bulunanlar:
  • (Profil sayfanızdan akor gönderebilirsiniz)
Yorumlar
Üye girişi yapmanız gerekmektedir