Milyonlarca şarkı, En sevdiğiniz Parçalar için Akorlar Alın, Birlikte Çalın
Em                     C   D
How the hell'd we wind up like this
G
Why weren't we able
Em              C      D
To see the signs that we missed
G
Try and turn the tables
Em                C   D
I wish you'd unclench your fists
G
And unpack your suitcase
Em                      C    D
Lately theres been too much of this
G
But don't think it's too late
A
Nothings wrong
D
Just as long as you know that someday I will
 
C              G
Someday, Somehow
D                                  A
I'm gonna make it alright but not alright now
C     D                   Em     D
I know your're  wondering away 
C               G
Someday, Somehow
D                                 A
I'm gonna make it alright but not alright now
C    D                  Em
I know you're wondering away
 
Em              C                  D
Well I hope that since we're here anyway
G
We could end up saying
Em              C                 D
Things we've always needed to say
G
So we could end up staying
Em                    C   D
Now the story's played out like this
G
Just like a paperback novel
Em                  C D
Lets rewrite an ending that fits
G
Instead of hollywood horror
A
Nothings wrong
D
Just as long as you know that someday I will
 
C              G
Someday, Somehow
D                                 A
I'm gonna make it alright but not alright now
C D                   Em     D
I know your're wondering away (your're the only one who knows that)
C               G
Someday, Somehow
D                                A
I'm gonna make it alright but not alright now
C D                 Em
I know you're wondering away
 
e---------------------------------------------------------------------------------
b--------------------------------------------------2---------2--3----2-3----------
g-7--4--6-6h7-6---4----2-----6-6h7-6---4----2--4------4----------2----------------
d---------------7--------4-----------7-----0--------------------------------------
a---------------------------------------------------------------------------------
e---------------------------------------------------------------------------------
 
e---------------------------------------------------------------------------------
b-------22--33-----55--22--33-------22-33-----77-----------------22--33-----5-7-0-
g-444-----------22---------------444--------22----66-77----444----------22--------
d---------------------------------------------------------------------------------
a---------------------------------------------------------------------------------
e---------------------------------------------------------------------------------
 
Em                      C D
How the hell'd we wind up like this
G
Why weren't we able
Em                C     D
To see the signs that we missed
G
And try and turn the tables
Em                    C  D
Now the story's played out like this
G
Just like a paperback novel
Em                       C               D
Lets rewrite and ending that fits
G
Instead of hollywood horror
A
Nothings wrong
D
Just as long as you know that someday I will
 
C               G
Someday, Somehow
D                                 A
I'm gonna make it alright but not alright now
C D                   Em  D
I know you're wondering away (you're the only one who knows that)
C               G
Someday, Somehow
D                                 A
I'm gonna make it alright but not alright now
C D                     Em  D
 
I know you're wondering away (You're the only one who knows that)
C D                     Em  D
I know you're wondering away (You're the only one who knows that)
C D                A
I know you're wondering away
Someday akoru , Someday orjinal ton akor , Someday kolay ton akoru
Bu içerik için hata bildir
Yorumlar
Üye girişi yapmanız gerekmektedir
Bilgiler
  • Ekleyen: admin,
  • Katkıda bulunanlar:
  • (Profil sayfanızdan akor gönderebilirsiniz)