Nirvana - Milk İt - Akor ( Orjinal Ton Kolay )
Akorlar Mobil uygulamasını
Şimdi İndirin






Intro:
(impromptu)
G5 C#5 E5 F5 C#5 G5 C#5 E5 x2
 
PRC#-VERSC#
----------------I-------------3---I
----------------I-----------------I
----------------I----------3------I
----------------I-----------------I
----------------I-----------------I
6-6-6-6-6-6-6-6-I-0-0-0-0---------I
 
6-6-6-6-6-6-6-6-6-I-0-0-0-0-0-0-0-0
I am my own parasite
I don't need a host to live
We feed off of each other
We can share our endorphins
 
G5 C#5 E5 F5 C#5 G5 C#5 E5
Doll steak!
G5 C#5 E5 F5 C#5 G5 C#5 E5
Test meat!
 
G5 C#5 E5 F5 C#5
Look on the bright side is suicide
G5 C#5 E5 F5 C#5
Lost eyesight I'm on your side
G5 C#5 E5 F5 C#5
Angel left wing, right wing, broken wing
G5 C#5 E5 F5 C#5
Lack of iron and/or sleeping
 
PRC#-VERSC#
----------------I-------------3---I
----------------I-----------------I
----------------I----------3------I
----------------I-----------------I
----------------I-----------------I
6-6-6-6-6-6-6-6-I-0-0-0-0---------I
 
6-6-6-6-6-6-6-6-6-I-0-0-0-0-0-0-0-0
I own my own pet virus
I get to pet and name her
Her milk is my shit
My shit it is her milk
 
           G5 C#5 E5 F5 C#5 G5 C#5 E5
Doll steak!
           G5 C#5 E5 F5 C#5 G5 C#5 E5
Test meat!
 
G5 C#5 E5 F5 C#5
Look on the bright side is suicide
G5 C#5 E5 F5 C#5
Lost eyesight I'm on your side
G5 C#5 E5 F5 C#5
Angel left wing, right wing, broken wing
G5 C#5 E5 F5 C#5
Lack of iron and/or sleeping
 
----------------I-------------3---I
----------------I-----------------I
----------------I----------3------I
----------------I-----------------I
----------------I-----------------I
6-6-6-6-6-6-6-6-I-0-0-0-0---------I
 
G5 C#5 E5 F5 C#5 G5 C#5 E5
 
           G5 C#5 E5 F5 C#5 G5 C#5 E5
Doll steak!
           G5 C#5 E5 F5 C#5 G5 C#5 E5
Test meat!
 
G5 C#5 E5 F5 C#5
Look on the bright side is suicide
G5 C#5 E5 F5 C#5
Lost eyesight I'm on your side
G5 C#5 E5 F5 C#5
Angel left wing, right wing, broken wing
G5 C#5 E5 F5 C#5
Lack of iron and/or sleeping
 
G5 C#5 E5 F5 C#5
Protector of the kennel
G5 C#5 E5 F5 C#5
Ecto-plasma, Ecto-skeletal
G5 C#5 E5 F5 C#5
Obituary every birthday
G5 C#5 E5 F5 C#5
Your scent is still here in my place of recovery!



Rastgele
Bu içerik için hata bildir



Bilgiler
  • Ekleyen: admin,
  • Katkıda bulunanlar:
  • (Profil sayfanızdan akor gönderebilirsiniz)
Yorumlar
Üye girişi yapmanız gerekmektedir