Milyonlarca şarkı, En sevdiğiniz Parçalar için Akorlar Alın, Birlikte Çalın
Verse music:
 
          --------mute----------
e---------------------------------------------
b---------------------------------------------
g----2-.----------------------2-.-------------
d--0---.-----0------0-----2-0---.---0---0-----
a--------2-2----1-1----0----------2---1---0---
e---------------------------------------------
 
 
 
(chords listed over lyrics)
 
Solo:
 
(repeat once)
e----7-10-9-7---------------7-10-9-7----------------
b--7----------7--------7--7----------7--------7-----
g.--------------9--7-9-----------------9--7-9-----.-
d.----------------------------------------------9-.-
a---------------------------------------------------
e---------------------------------------------------
 
Lyrics:
 


 
Take this pink ribbon...
 
       Gm         F D# F
'Cause I am just...
Gm F D# F
Gm F D# F
Gm F D# F
D# [C](the G and C are palm muted)
 


 
The moment that...
 
       Gm          F
'Cause I am just...
D# F
Gm F
D# F
Gm F
D# F
Gm F
D# F
Gm F
D# F
Gm F D# F
D# [C](the G and C are palm muted)
 

Bm-F-D#-A thing 4 times>
 
D#         G#  (G and C muted)
Oh...I am making...
 


 
I'm just a girl...
 
Gm         F      D# F
I'm just a girl...
Gm
F D# F
Gm F D# F
Gm
F D# F
Gm F D# F
Gm F D# F
Gm F D# F
Gm F D# F
D# [C](G's and C's muted throughout)
D# G#
D# G# Gm
 
(slow down on the last G and let the final Gm ring out)
Just a Girl akoru , Just a Girl orjinal ton akor , Just a Girl kolay ton akoru
Bu içerik için hata bildir
Yorumlar
Üye girişi yapmanız gerekmektedir
Bilgiler
  • Ekleyen: admin,
  • Katkıda bulunanlar:
  • (Profil sayfanızdan akor gönderebilirsiniz)