Nükhet Duru - Melankoli - Akor ( Orjinal Ton Kolay )
Akorlar Mobil uygulamasını
Şimdi İndirin






 Fm  4 kere
E|------------------------------------
B|-------1-----0-----1-----3-----1----
G|-----2---2-----2-----2-----2-----2--
D|-----------2-----2-----2-----2------
A|---0--------------------------------
E|------------------------------------
 
Fm              A#m
Beni en güzel günümde
Fm             A#m
Sebepsiz bir keder alır
C#                 D#
Bütün ömrümün beynimde
C#       A#m       C
Acı bir tortusu kalır
 
Fm            A#m
Anlayamam kederimi
Fm               A#m
Bir ateş yakar derimi
C#                D#
İçim dar bulur yerimi
C#         A#m       C
Gönlüm dağlarda bunalır
 
Fm          C#       C       )
Ne bir dost ne bir sevgili  )
Fm       C#          C       )
Dünyadan uzak bir deli      )
C#       A#m      C           )  X2
Beni sarar melankoli        )
C#       A#m      C           )
Beni sarar melankoli        )
 
      Fm  2 kere
E|------------------------------------
B|-------1-----0-----1-----3-----1----
G|-----2---2-----2-----2-----2-----2--
D|-----------2-----2-----2-----2------
A|---0--------------------------------
E|------------------------------------
 
Fm                A#m
Ne kış ne yazı isterim
Fm                 A#m
Ne bir dost yüzü isterim
C#                D#
Hafif bir sızı isterim
C#       A#m      C
Ağrılar sancılar gelir
 
Fm              A#m
Yanıma düşer kolların
Fm               A#m
Görünmez olur yolların
C#               D#
En sevgili emellerin
C#      A#m      C
Önüme ölüm serilir
 
Fm          C#       C       )
Ne bir dost ne bir sevgili  )
Fm       C#          C       )
Dünyadan uzak bir deli      )
C#       A#m      C           )  X2
Beni sarar melankoli        )
C#       A#m      C           )
Beni sarar melankoli        )



Rastgele
Bu içerik için hata bildir



Bilgiler
  • Ekleyen: admin,
  • Katkıda bulunanlar:
  • (Profil sayfanızdan akor gönderebilirsiniz)
Yorumlar
Üye girişi yapmanız gerekmektedir