>


İntro: Solo
E-----------------------------------------------------------
B-----------------------------------------------------------
G-----------------------------------------------------------
D-----------------------------------------------------------
A-------------2-0--------------------------2-0--------------
E---0-2-0-2h3-----3-2-2h3-2-0----0-2-0-2h3-----3-2-2h3-2-0--
 
E-----------------------------------------------------------
B-----------------------------------------------------------
G-----------------------------------------------------------
D-------------2-0-------------------------------------------
A---0-2-0-2h3-----3-2-2h3-2-0--------------2-0--------------
E--------------------------------0-2-0-2h3-----3-2-2h3-2-0--
 
Bm             F#
Çok Görme Bana Bu Aşk Bir Hediye
Bm              F#
Sen Yokken İçinde Yaşamak Ne Diye
Em              Bm
Çok Da Yakıştık Baksana Birbirimize
Bm             F#
Hiç Çekinmeden Sor İstersen Birine
 
Em
Senin Olmak İstedim
D#m
Sen Yalnız İyiyim Dedin
D
Hiç Umrunda Değilmiş
C#m
Ee Sonunda Delirdim
 
Bm             F#
Laalala Lalaaa Bak Sonunda Delirdim   
 
Em        Bm                        
Tanrı Seni Yarattı                
D                    C(Baresiz)        
Sonra Seni Bana Bıraktı                 Nak.
Em              Bm                
Sen Yanımda Olmasan Bile        
D                C(Brsz)*     F#        
Sana Gönüllü Bir Köle Oldum Ben        
 
Bm             F#
Laalala Lalaaa Laaa Lalala Lala Lala   
 
Bm              F#
Çok Kendini Beğenmiş Bir Halin Var
Bm                F#
Bak Yine Söylüyorum Bu Aşk İşine Yarar
Em                Bm
İlk Defa Aşık Oldum Senin Gibi Birine
Bm                  F#
İstesen De Koyamazsın Birini Benim Yerime
 
Em
Aşkı Bulmak İstedim
D#m
Tatmak İçin Bekledim
D
Sen Beni Hiç Sevmedin
C#m
Ee Sonunda Delirdim
 
Bm             F#
Laalala Lalaaa Bak Sonunda Delirdim   
 
Nak.   
 
*Solo
 
Bm              F#
Tam Buldum Seni Derken
Bm             F#
Dur Gitme Daha Erken
Bm             F#
Bu Aşk İkimize De Yeter
Bm              F#
Bir Ben Var Bir De Sen
 
Nak.   
 
Bm             F#
Laalala Lalaaa Laaa Lalala Lala Lala x3
Bm             F#
Laalala Lalaaa Ve Sonunda Delirdim


Bu içerik için hata bildir
Rastgele
Bilgiler
  • Ekleyen: admin,
  • Katkıda bulunanlar:
  • (Profil sayfanızdan akor gönderebilirsiniz)
Yorumlar
Üye girişi yapmanız gerekmektedir
Gönüllü Köle akoru , Gönüllü Köle orjinal ton akor , Gönüllü Köle kolay ton akoru