Akorlar Mobil uygulamasını
Şimdi İndirin






Reklam
oy farfara farfara ateşde düştü şalvara
E:----------|-----------|--------------|------------|
B:--1-1-1-1-|--1-0--1-0-|--0-1-3-1-3-1-|--1-0---1-0-|
G:----------|------2----|--------------|------2-----|
D:----------|-----------|--------------|------------|
A:----------|-----------|--------------|------------|
E:----------|-----------|--------------|------------|

ağzım dilim kurudu kız sana yalvara yalvara
E:--------------|----------------|-----------------|-----------1-1-0-----|
B:--0-1-3-1-3-1-|--1-0---1-0-----|-----------------|-1-3-1-3-1-------3-1-|
G:--------------|------2-----2-0-|--0-2-4-2--0-----|---------------------|
D:--------------|----------------|-------------3-2-|---------------------|
A:--------------|----------------|-----------------|---------------------|
E:--------------|----------------|-----------------|---------------------|



Rastgele Reklam
Bu içerik için hata bildir



Bilgiler
  • Ekleyen: admin,
  • Katkıda bulunanlar:
  • (Profil sayfanızdan akor gönderebilirsiniz)
Yorumlar
Üye girişi yapmanız gerekmektedir
Reklam