Pink - So What - Akor ( Orjinal Ton Kolay )
Akorlar Mobil uygulamasını
Şimdi İndirin






1. İNTRO
 
E|------------------------------------------|
B|------------------------------------------|
G|-----------2------------------------------|
D|--4--2--4-----4--2------------------------|
A|--------------------4---4--2--4--4--2-----|
E|---------------------------------------2--|
 
na na na na na na na na na na na na
 
I guess I just lost my husband
I don't know where he went
So I'm gonna drink my money
Not gonna pay his rent
I got a brand new attitude, I'm gonna wear it tonight
I'm gonna get in trouble
I wanna start a fight
na na na na na na na na
I wanna start a fight
na na na na na na na na
I WANNA START G FIGHT
 
Nak.
 
( G B9  Em  C9 )
So, So What i'm still a rock star
I got my rock moves
And I don't need you
And guess what
I'm having more fun
Now that we're done
I'm going to show you tonight
I'm alright, I'm just fine and you're a tool
So, So what, I am a rockstar I got my rock moves
And I don't want you tonight
 
1. İNTRO Tekrar
 
The Waiter just took my table and gave it to Jessica Simpson.
I guess I'll go sit with drum boy at least he knows how to hit.
One of the songs on the radio, that somebody is gonna die
I'm going to get in trouble, my ex gonna start a fight
 
Nananana he's going to start a fight, nanananana we're all
going to get into a fight
 
2. İNTRO
 
E|------------------------------------------------------------|
B|---10----------10----------10-------------------------------|
G|-------9--7--6----9--7--6------9--7--6--2--4--6--7----------|
D|------------------------------------------------------------|
A|------------------------------------------------------------|
E|------------------------------------------------------------|
 
You weren't fair,
You never were
you wan't it all but that's not fair
I gave you life
I gave my all
You weren't fair, you let me fall
 
( G B9  Em  C9 )
No No No No
I don't want you tonight, you weren't fair, I'm going to show you tonight
I'm alright I'm just fine and you're a tool
So, So what, I am a rockstar I got my rock moves
And I don't want you tonight



Rastgele
Bu içerik için hata bildir



Bilgiler
  • Ekleyen: admin,
  • Katkıda bulunanlar:
  • (Profil sayfanızdan akor gönderebilirsiniz)
Yorumlar
Üye girişi yapmanız gerekmektedir