Radiohead - Exit Music - Akor ( Orjinal Ton Kolay )
Akorlar Mobil uygulamasını
Şimdi İndirin






Intro:
---|------------|-------------|-----------|-------------|
---|------------|-------------|-----------|-------------|
---|------------|-------------|-----------|-------------|
---|--3--/10--9-|-11----7-----|-3--/10--9-|-7-----11--14|
---|------------|-------------|-----------|-------------|
-0-|--1--/8---7-|-9-----5---0-|-1--/8---7-|-5-----9---12|
 
|--------------|-------------|--------------|
|--------------|-------------|--------------|
|--------------|-------------|--------------|
|-15-----10--9-|-11----7-----|-3--/10--9----|
|--------------|-------------|--------------|
|-13-----8---7-|-9-----5---0-|-1--/8---7----|
 
|--0--|---|
|--0--|---|
|--6--|---|
|--7--|---|
|--0--|---|
|-----|---|
 
Verse
|--0--|--0--|--0--|--0--|
|--0--|--0--|--0--|--0--|
|--6--|--8--|.-7-.|.-6-.|
|--7--|--7--|.-7-.|.-7-.|
|--0--|--0--|--0--|--0--|  x 2
|-----|-----|-----|-----|
 
chorus:
|--0--|-----|--0--|--0--|
|--0--|-----|--0--|--0--|
|--2--|--2--|.-1-.|.-6-.|
|--1--|--4--|.-2-.|.-7-.|
|--2--|--4--|--2--|--0--|  x 2
|-----|--2--|--0--|-----|
 
(repeat verse)
 
(repeat chorus)
 
Solo:
|----------------|----------------|
|-10t-----9t-----|-7t-----9t------|
|----------------|----------------|
|----------------|----------------|
|----------------|----------------|
|----------------|----------------|
 
|----------------|----------------|
|--6t------------|----------------|
|----------------|----------------|
|----------------|----------------|
|----------------|----------------|
|----------------|----------------|
 
|------------------------|-----------------------|
|-6--5---------------5---|-6--5------------------|
|-------7--6----67------|-------7--6------------|
|-----------------------7|-----------------------|
|------------------------|-----------------------|
|------------------------|-----------------------|
 
Şarkı:"Amnesiac/ Morning Bell"
Albüm: Amnesiac
Radiohead
 
Akorlar
             EADGBe
 
[Em          x02210]
[Emaj7       x02120]
[D           320033]
[A           x00232]
[Bm          022000]
[D#m         466444]
 
 Em         Emaj7  Em          Emaj7  Em             Emaj7
Morning Bell       Morning Bell       not another encounter
 
  D      A    D      D
Release me  Release me
 
Em               Emaj7        Em              Emaj7  Em               Emaj7
You can keep the furniture  a bump on the head       falling down the chimney
 
  D       A   D       D
Release me  Release me
 
Em    Emaj7
Yeah
 
Em    Emaj7
Em    Emaj7
 
  D       A   D      D
Release me  Release me
 
Em                       Emaj7  Em                       Emaj7
Where'd you park the car?       Where'd you park the car?
 
    Em                 Emaj7        Em       Emaj7
Clothes are on the lawn with the furniture
      Em           Emaj7     Em           Emaj7   Em              Emaj7
and i might as well        i might as well        sleepy jack the fire drill
 
Em              Emaj7           D     A       D     D
round n round n round n round n round     and round
 
Bm              D#m   Bm              D#m   Bm              G#m
cut the kids in half  cut the kids in half  cut the kids in half
 
A    E
A    E
 
Em   Emaj7
Em   Emaj7
Em   Emaj7
D    A
 
D                G                      D/F#                D
i get home from work and you're still standing in your dressing gown
            Bm
well what am i to do?
D               G                  D/F#                     D
i know all the things around your head and what they do to you.
            C
what are we coming to?
            D/F#                D
what are we gonna do?
 
Chorus:
(A)                Em            D/F# C
blame it on the black star
(G)                Em            D/F# C
blame it on the falling sky
                 D         G  D                   D
blame it on the satellite        that beams me home.
 
Verse:
D                        G                D/F#            A                  Bm
the troubled words of a troubled mind i try to understand what is eating you.
D              G                     D/F#    A                      Bm
i try to stay awake but its 58hours since that i last slept with you.
            C
what are we coming to?
              D/F#           D
i just don't know anymore.
 
Chorus:
(A)                Em            D/F# C
blame it on the black star
(G)                Em            D/F# C
blame it on the falling sky
                 D         G  D                  PLAY INTRO
blame it on the satellite        that beams me home.
 
Verse: Just bass, but you can play the chords, come in on what am i coming to?
D             G                      D/F#          A                   Bm
i get on the train and i just stand about now that i don't think of you.
D                G           D/F#                    A            Bm
i keep falling over i keep passing out when i see a face like you.
          C
what am i coming to?
          D/F#            D
i'm gonna melt down.
 
Chorus:
(A)                Em            D/F# C
blame it on the black star
(G)                Em            D/F# C
blame it on the falling sky
                 D         G  D                  PLAY INTRO TILL THB END
blame it on the satellite        that beams me home.
 
Thanks, check out Bones.
 
B---------------------------------------
F#---------------------------------------
D---------------------------------------
A-------16--X--16--------16--16--16--16-REPEAT
E-------14--X--14--------14--14--14--14-
B--------0--X---0---------0---0---0---0-
 
B-----------------------------------
F#-----------------------------------
D-----------------------------------
A--------12--14--14------12--14--14-
E--------10--12--12------10--12--14-
B---------0---0---0-------0---0---0-
 
Keep repeating these two sequences for the intro and the verses
 
CHORUS - Distorted
B---------------------------------
F#---------------------------------
D---------------------------------REPEAT
A--------18--18--18----16--16--16-
E--------16--16--16----14--14--14-
B---------0----0---0---0---0----0-
 
B-----------------------------------------------
F#-----------------------------------------------
D-----------------------------------------------
A--------16--17--16--17--16--17--16--17--16-----
E--------15--15--15--15--15--15--15--15--15-----
B---------0---0----0----0---0----0---0----0---0-
 
Play these two sequences one after the other four times for that distorted bit in the middle of the song.
After this there are a load of sound effects and static, but these tabs hold the basic structure of the song.
 
---
 
the simple version:
 
Em-022002
D-320003
E-002220
 
also play it as
 
x(10)9(11)xx
999(11)xx
(10)99(11)xx
 
---
 
From: Nicholas Deysher
Date: Wed, 2 Oct 1996 12:49:48 -0400 (EDT)
 
Here is another crazy interpretation of Blow Out for y'all to check out.
 
"Blow Out"
 
-1 & 2 & 3 & 4 &-1 & 2 & 3 & 4 &-1 & 2 & 3 & 4 &-1 & 2 & 3 & 4 &
-----------------------------------------------------------------
-7-----7-7-----7---7---7---5---7-7-----7-7-----7---7---7---5---7-
-5-----5-5-----5---5---5---5---5-5-----5-5-----5---5---5---5---5-
-----------------------------------------------------------------
-7-----7-7-----7---7---7---7---7-7-----7-7-----7---7---7---7---7-
-----------------------------------------------------------------
 
-1 & 2 & 3 & 4 &-1 & 2 & 3 & 4 &-1 & 2 & 3 & 4 &-1 & 2 & 3 & 4 &
-----------------------------------------------------------------
-7-----7-7-----7---7---7---5---7-3-----4-4-----------------------
-5-----5-5-----5---5---5---5---5-5-----7-7-----------------------
-------------------------------5-5-----7-7-----------------------
-7-----7-7-----7---7---7---7---7-4-----6-6-----------------------
-----------------------------------------------------------------
                                           Let Ring_____________
 
-1 & 2 & 3 & 4 &-1
------------------
/9-9-----7--------
---7-----6--------
------------------
------------------
------------------
         Let Ring_
 
Bullet Proof... I Wish I was / Radiohead
---------------------------------------
 
Giriş:
Em Gmaj7 F#m A Em Gmaj7 F#m A A
 
Em                 Gmaj7           F#m          D
Limb by limb and tooth by tooth, tearing up inside of me.
Em        Gmaj7      F#m         A  A
Everyday, everyhour, wish that I... was bullet proof.
 
Em Gmaj7 F#m A
 
Em      Gmaj7     F#m                D
Wax me, mould me, heat the pins and stab them in.
Em                  Gmaj7          F#m          A  D
You have turned me into this, just wish that it... was bullet proof...
 
D F#m Gadd9 Gadd9 D F#m Gadd9 Dm/F
 
  Em                 Gmaj7       F#m            D
So pay me money, and take a shot, lead-fill the hole in me.
Em               Gmaj7               F#m       A  D
I could burst a million bubbles, all surrogate... and bullet proof...
 
D F#m Gadd9 Gadd9 D F#m Gadd9 Gadd9 D F#m Gadd9 Dm/F
 
  Em  Gmaj7  F#m  A  D  Gadd9  Dm/F
 
|-0---0------2---2--3--0----------|
 
|-1---0------3---3--3--3------3---|
 
|-2---0------4---2--0--0------0---|
 
|-2---2------4---0--0--2------0---|
 
|-0---3------2------2--3------1---|
 
|-------------------3-------------|
 
Creep
 
                   G
When you were here before
                         F#
Couldn't look you in the eyes
                 C
You look like an angel
                   Gm
Your skin makes me cry
 
                 G
You float like a feather
              B
In a beautiful weather
             C
I wish I was special
                  Gm
You're so fucking special
 
Chorus:
               D
     But I'm a creep
           F#
     I'm a wierdo
                              G
     What the hell am I doin' here
                    Gm
     I don't belong here
 
I don't care if it hurts
I wanna have control
I wanna perfect body
I want a perfect soul
 
I want you to notice
When I'm not around
 
You're so fuckin' special
I wish I was special....
 
(then something like this...)
oooh... she's running away....she's running...run..run...run..ruuuuun
 
Whatever makes you happy
Whatever you want
You're so fucking special
Wish I was special...
 
HEY. This is and early acoustic version played by Thom which can be found
in
the "My Iron Lung Ep".
The song is in standard tuning and in 4/4 rhythm.
All the chords are Barre chords so you will need to have strengthened your
fingering for these shapes.
 
Intro
 
   Gmaj                            Dsus4
B--3-------------------------------3-----------3------------------|
F#--3-------------------------------3-----------3------------------|
D--4-------------------------------5-----------4------------------|
A--5-------------------------------3-or-x------5------------------|
E--5-------------------------------5-----------5------------------|
B--3-------------------------------3-----------3------------------|
   V . . . V . . ^ V . v . V ^ v ^ V . . ^ V ^ v . . ^ v . V . v ^
   1 . & . 2 . & . 3 . & . 4 . & . 1 . & . 2 . & . 3 . & . 4 . & .
 
   F#                               F#sus4
B--7-------------------------------7-----------7------------------|
F#--7-------------------------------7-----------7------------------|
D--8-------------------------------9-----------8------------------|
A--9-------------------------------7-or-x------9------------------|
E--9-------------------------------9-----------9------------------|
B--7-------------------------------7-----------7------------------|
   V . . . V . . ^ V . v . V ^ v ^ V . . ^ V ^ v . . ^ v . V . v ^
   1 . & . 2 . & . 3 . & . 4 . & . 1 . & . 2 . & . 3 . & . 4 . & .
 
   G                               Gsus4
B--8-------------------------------8---------------8---------------|
F#--8-------------------------------8---------------8---------------|
D--9-------------------------------10--------------9---------------|
A--10------------------------------8-or-x----------10--------------|
E--10------------------------------10--------------10--------------|
B--8-------------------------------8---------------8---------------|
   V . . . V . . ^ V ^ v . V . v ^ V . v . V . v ^ V ^ v . V . v ^
   1 . & . 2 . & . 3 . & . 4 . & . 1 . & . 2 . & . 3 . & . 4 . & .
 
   Gm
B--8--------------------------------------------------------------|
F#--8--------------------------------------------------------------|
D--8--------------------------------------------------------------|
A--10-------------------------------------------------------------|
E--10-------------------------------------------------------------|
B--8--------------------------------------------------------------|
   V . . . V . v ^ V . . . V . v ^ V . v . V . v ^ V . v . V . v ^
   1 . & . 2 . & . 3 . & . 4 . & . 1 . & . 2 . & . 3 . & . 4 . & .
                                                  When you were here be-
Verse starts:
   Gmaj
B--3-----------------------3-------3------------------------------|
F#--3-----------------------3-------3------------------------------|
D--4-----------------------5-------4------------------------------|
A--5-----------------------3-------5------------------------------|
E--5-----------------------5-------5------------------------------|
B--3-----------------------3-------3------------------------------|
   V . . . V . v ^ V ^ v ^ V ^ v ^ V . v . V . v ^ V . v . V ^ v ^
   1 . & . 2 . & . 3 . & . 4 . & . 1 . & . 2 . & . 3 . & . 4 . & .
  -fore                                        couldn't look you in the-
 
   F#
B--7-----------------------7-------7------------------------------|
F#--7-----------------------7-------7------------------------------|
D--8-----------------------9-------8------------------------------|
A--9-----------------------7-------9------------------------------|
E--9-----------------------9-------9------------------------------|
B--7-----------------------7-------7------------------------------|
   V . . . V . v ^ V ^ v ^ V ^ v ^ V . v . V . v ^ V . v . V ^ v ^
   1 . & . 2 . & . 3 . & . 4 . & . 1 . & . 2 . & . 3 . & . 4 . & .
  -eye                                         you're just like an-
 
   G
B--8-----------------------8-------8------------------------------|
F#--8-----------------------8-------8------------------------------|
D--9-----------------------10------9------------------------------|
A--10----------------------8-------10-----------------------------|
E--10----------------------10------10-----------------------------|
B--8-----------------------8-------8------------------------------|
   V . . . V . v ^ V ^ v ^ V ^ v ^ V . v . V . v ^ V ^ v ^ V ^ v ^
   1 . & . 2 . & . 3 . & . 4 . & . 1 . & . 2 . & . 3 . & . 4 . & .
  -angel                                       your skin makes me -
 
   Gm
B--8-----------------------8-------8------------------------------|
F#--8-----------------------8-------8------------------------------|
D--8-----------------------10------8------------------------------|
A--10----------------------8-------10-----------------------------|
E--10----------------------10------10-----------------------------|
B--8-----------------------8-------8------------------------------|
   V . . . V . v ^ V ^ v ^ V ^ v ^ V . v . V . v ^ V . v . V ^ v ^
   1 . & . 2 . & . 3 . & . 4 . & . 1 . & . 2 . & . 3 . & . 4 . & .
  -cry                                         You float like a -
 
(repeat verse chords)
feather
In a beautiful world
I wish I was special
You're so VERY-
 
   Gm
B--8-----------------------8-------8------------------------------|
F#--8-----------------------8-------8------------------------------|
D--8-----------------------10------8------------------------------|
A--10----------------------8-------10-----------------------------|
E--10----------------------10------10-----------------------------|
B--8-----------------------8-------8------------------------------|
   V . . . V . v ^ V ^ v ^ V ^ v ^ V . v . V . v ^ V . v . V ^ v ^
   1 . & . 2 . & . 3 . & . 4 . & . 1 . & . 2 . & . 3 . & . 4 . & .
  -special                                     but I'm  aa       cr-
 
CHORUS Begins (same chords as verse):
  Gmaj
B--3-----------------------3-------3------------------------------|
F#--3-----------------------3-------3------------------------------|
D--4-----------------------5-------4------------------------------|
A--5-----------------------3-------5------------------------------|
E--5-----------------------5-------5------------------------------|
B--3-----------------------3-------3------------------------------|
   V . v . V . v ^ V ^ v ^ V ^ v ^ V . v . V . v ^ V ^ v ^ V ^ v ^
   1 . & . 2 . & . 3 . & . 4 . & . 1 . & . 2 . & . 3 . & . 4 . & .
  -rreep                                           I'm aa        W-
 
(same as verse chords)
F#      F#sus4 B
Weirdo
                         G    Gsus4 C
What the hell am I doing here?
          Gm        Gsus4 Gm
I don't belong here
 
I don't care if it hurts
I want to have control
I want a perfect body
I want a perfect soul
I want you to notice when I'm not around
You're so very special
I wish I was special
 
But I'm a creep
I'm a weirdo
What the hell am I doing--
   Cmaj              Csus?    Cmaj
B--8-----------------------8-------8-------------------------------|
F#--8-----------------------8-------8-------------------------------|
D--9-----------------------9-------9-------------------------------|
A--10----------------------12------10------------------------------|
E--10----------------------10------10------------------------------|
B--8-----------------------8-------8-------------------------------|
   V . v . V . v ^ V ^ v ^ V ^ v ^ V . v . V . v ^ V ^ v ^ V ^ v ^
   1 . & . 2 . & . 3 . & . 4 . & . 1 . & . 2 . & . 3 . & . 4 . & .
 --here?   (*take note of the chord here*)      I don't be-
 
   Gm
B--8-----------------------8-------8------------------------------|
F#--8-----------------------8-------8------------------------------|
D--8-----------------------10------8------------------------------|
A--10----------------------8-------10-----------------------------|
E--10----------------------10------10-----------------------------|
B--8-----------------------8-------8------------------------------|
   V . v . V . v ^ V ^ v ^ V ^ v ^ V ^ v ^ V ^ v ^ V ^ v ^ V ^ v ^
   1 . & . 2 . & . 3 . & . 4 . & . 1 . & . 2 . & . 3 . & . 4 . & .
  -long here                        whoah          ooh            -
 
BRIDGB/INTERLUDE is same chords as verse and chorus but its kinda played like this:
 
   Gmaj              Dsus4    Gmaj                   Dsus4   Gmaj
B--3-----------------3-------3-----3-----------------3-------3----|
F#--3-----------------3-------3-----3-----------------3-------3----|
D--4-----------------5-------4-----4-----------------5-------4----|
A--5-----------------x-------5-----5-----------------x-------5----|
E--5-----------------5-------5-----5-----------------5-------5----|
B--3-----------------3-------3-----3-----------------3-------3----|
   V . v . V . v ^ V ^ v ^ V ^ v ^ V . v . V . v ^ V ^ v ^ V ^ v ^
   1 . & . 2 . & . 3 . & . 4 . & . 1 . & . 2 . & . 3 . & . 4 . & .
-Sheeeeeeeeeeeeeeeeeeeeeeeeee's    r -u - nning       out
 
B and F#sus4 (sometimes no Bsus4)
--agaaaaaaeeaaaiiiinn....--
 
   Cmaj              Csus?    Cmaj
B--8-----------------8-------8-----8------------------------------|
F#--8-----------------8-------8-----8------------------------------|
D--9-----------------9-------9-----9------------------------------|
A--10----------------12------10----10-----------------------------|
E--10----------------10------10----10-----------------------------|
B--8-----------------8-------8-----8------------------------------|
   V . v . V . v ^ V ^ v ^ V ^ v ^ V . v . V . v ^ V ^ v ^ V ^ v ^
   1 . & . 2 . & . 3 . & . 4 . & . 1 . & . 2 . & . 3 . & . 4 . & .
   She's ------                    running              out....
 
Gm                     G etc.....B etc...C etc.....Gm etc..
She runs runs runs  RRUUUUUUUUUUNS       RUUUUUUUUNS
 
(play same as the original verse riff)
Whatever makes you happy
Whatever you want
You're so VERY special
i wish i was special
but i'm a cr-
 
FINAL CHORUS (the samechords as verse):
  Gmaj
B--3-----------------------3-------3------------------------------|
F#--3-----------------------3-------3------------------------------|
D--4-----------------------5-------4------------------------------|
A--5-----------------------x-------5------------------------------|
E--5-----------------------5-------5------------------------------|
B--3-----------------------3-------3------------------------------|
   V . v . V . v ^ V ^ v ^ V ^ v ^ V . v . V . v ^ V ^ v ^ V ^ v ^
   1 . & . 2 . & . 3 . & . 4 . & . 1 . & . 2 . & . 3 . & . 4 . & .
  -rreep                                           I'm aa        W-
 
(same as verse chords)
F#      F#sus4 B
Weirdo
                         G    Gsus4 C
What the hell am I doing here?
          Gm        Gsus4 Gm
I don't belong here
          Gmaj
i don't belong here.
 
That's it i hope you enjoy it.  I tried to make it as detailed as possible..
and its annoying... but here it is.. i got tired of typeing. HAVB FUN! :)
 
Not: Şarkı Akustik içindir.
 
RADIOHEAD: EXIT MUSIG
 
 F#m  F#5  C#  E   B   D   G   Em
 
 2   2   2   0   0   3   0   0
 3   2   2   2   0   0   1   1
 4   4   3   2   1   0   0   2
 4   4   4   2   2   0   2   2
 2   2   4   0   2   2   3   0
 x   x   2   x   0   3   3   x
 
 
Intro (Twice)
 
e--2--2--2--2--2--2--2--2--2--2--2--2--2
F#--3--3--3--3--3--3--2--2--3--3--3--3--3
D--4--4--4--4--4--4--4--4--2--2--4--4--4
A--4--4--4--4--4--4--4--4--4--4--4--4--4
E--2--2--2--2--2--2--2--2--2--2--2--2--2
B--x--x--x--x--x--x--x--x--x--x--x--x--x
 
Verse 1:
 
F#m            C#         E              E
Wake from you sleep, the drying of your tears
 
F#m         C#         F#5  F#m
Today, we escape, we escape.
 
F#m           C#         E                E
Pack and get dressed, before your father hears us
 
F#m         C#           F#5  F#m
Before all hell breaks loose.
 
Bridge:
 
Em          B
Breath keep breathing
 
      F#m    D    C#
Don't loose your nerve
 
Em          B
Breath keep breathing
 
  F#m       D    F#
I can't do this alone
 
Verse 2:
 
F#m        C#      E               E
Sing us a song, a song to keep us warm
        F#m     C#             F#5  F#m
There's such a chill, such a chill
 
Chorus:
 
F#m               C#        G
You can laugh, a spineless laugh
 
D            G         F#
We hope your rules and wisdom choke you
 
F#m          C#      E           E
Now, we are one, in everlasting peace
 
   F#m            C#              F#5  F#m
We hope that you choke, that you choke.



Rastgele
Bu içerik için hata bildir



Bilgiler
  • Ekleyen: admin,
  • Katkıda bulunanlar:
  • (Profil sayfanızdan akor gönderebilirsiniz)
Yorumlar
Üye girişi yapmanız gerekmektedir