Akorlar Mobil uygulamasını
Şimdi İndirin
Intro:
---|------------|-------------|-----------|-------------|
---|------------|-------------|-----------|-------------|
---|------------|-------------|-----------|-------------|
---|--3--/10--9-|-11----7-----|-3--/10--9-|-7-----11--14|
---|------------|-------------|-----------|-------------|
-0-|--1--/8---7-|-9-----5---0-|-1--/8---7-|-5-----9---12|
 
|--------------|-------------|--------------|
|--------------|-------------|--------------|
|--------------|-------------|--------------|
|-15-----10--9-|-11----7-----|-3--/10--9----|
|--------------|-------------|--------------|
|-13-----8---7-|-9-----5---0-|-1--/8---7----|
 
|--0--|---|
|--0--|---|
|--6--|---|
|--7--|---|
|--0--|---|
|-----|---|
 
Verse
|--0--|--0--|--0--|--0--|
|--0--|--0--|--0--|--0--|
|--6--|--8--|.-7-.|.-6-.|
|--7--|--7--|.-7-.|.-7-.|
|--0--|--0--|--0--|--0--|  x 2
|-----|-----|-----|-----|
 
chorus:
|--0--|-----|--0--|--0--|
|--0--|-----|--0--|--0--|
|--2--|--2--|.-1-.|.-6-.|
|--1--|--4--|.-2-.|.-7-.|
|--2--|--4--|--2--|--0--|  x 2
|-----|--2--|--0--|-----|
 
(repeat verse)
 
(repeat chorus)
 
Solo:
|----------------|----------------|
|-10t-----9t-----|-7t-----9t------|
|----------------|----------------|
|----------------|----------------|
|----------------|----------------|
|----------------|----------------|
 
|----------------|----------------|
|--6t------------|----------------|
|----------------|----------------|
|----------------|----------------|
|----------------|----------------|
|----------------|----------------|
 
|------------------------|-----------------------|
|-6--5---------------5---|-6--5------------------|
|-------7--6----67------|-------7--6------------|
|-----------------------7|-----------------------|
|------------------------|-----------------------|
|------------------------|-----------------------|
 
Şarkı:"Amnesiac/ Morning Bell"
Albüm: Amnesiac
Radiohead
 
Akorlar
             EADGBe
 
[Cm          x02210]
[Cmaj7       x02120]
[A#           320033]
[F           x00232]
[Gm          022000]
[Bm         466444]
 
 Cm         Cmaj7  Cm          Cmaj7  Cm             Cmaj7
Morning Bell       Morning Bell       not another encounter
 
  A#      F    A#      D
Release me  Release me
 
Cm               Cmaj7        Cm              Cmaj7  Cm               Cmaj7
You can keep the furniture  a bump on the head       falling down the chimney
 
  A#       F   A#       D
Release me  Release me
 
Cm    Cmaj7
Yeah
 
Cm    Cmaj7
Cm    Cmaj7
 
  A#       F   A#      D
Release me  Release me
 
Cm                       Cmaj7  Cm                       Cmaj7
Where'd you park the car?       Where'd you park the car?
 
    Cm                 Cmaj7        Cm       Cmaj7
Clothes are on the lawn with the furniture
      Cm           Cmaj7     Cm           Cmaj7   Cm              Cmaj7
and i might as well        i might as well        sleepy jack the fire drill
 
Cm              Cmaj7           A#     F       A#     D
round n round n round n round n round     and round
 
Gm              Bm   Gm              Bm   Gm              Em
cut the kids in half  cut the kids in half  cut the kids in half
 
F    C
F    C
 
Cm   Cmaj7
Cm   Cmaj7
Cm   Cmaj7
A#    F
 
A#                D#                      A#/D                D
i get home from work and you're still standing in your dressing gown
            Gm
well what am i to do?
A#               D#                  A#/D                     D
i know all the things around your head and what they do to you.
            C
what are we coming to?
            A#/D                D
what are we gonna do?
 
Chorus:
(F)                Cm            A#/D C
blame it on the black star
(D#)                Cm            A#/D C
blame it on the falling sky
                 A#         D#  A#                   D
blame it on the satellite        that beams me home.
 
Verse:
A#                        D#                A#/D            F                  Gm
the troubled words of a troubled mind i try to understand what is eating you.
A#              D#                     A#/D    F                      Gm
i try to stay awake but its 58hours since that i last slept with you.
            C
what are we coming to?
              A#/D           D
i just don't know anymore.
 
Chorus:
(F)                Cm            A#/D C
blame it on the black star
(D#)                Cm            A#/D C
blame it on the falling sky
                 A#         D#  A#                  PLAY INTRO
blame it on the satellite        that beams me home.
 
Verse: Just bass, but you can play the chords, come in on what am i coming to?
A#             D#                      A#/D          F                   Gm
i get on the train and i just stand about now that i don't think of you.
A#                D#           A#/D                    F            Gm
i keep falling over i keep passing out when i see a face like you.
          C
what am i coming to?
          A#/D            D
i'm gonna melt down.
 
Chorus:
(F)                Cm            A#/D C
blame it on the black star
(D#)                Cm            A#/D C
blame it on the falling sky
                 A#         D#  A#                  PLAY INTRO TILL THG END
blame it on the satellite        that beams me home.
 
Thanks, check out Bones.
 
G---------------------------------------
D---------------------------------------
A#---------------------------------------
F-------16--X--16--------16--16--16--16-REPEAT
C-------14--X--14--------14--14--14--14-
G--------0--X---0---------0---0---0---0-
 
G-----------------------------------
D-----------------------------------
A#-----------------------------------
F--------12--14--14------12--14--14-
C--------10--12--12------10--12--14-
G---------0---0---0-------0---0---0-
 
Keep repeating these two sequences for the intro and the verses
 
CHORUS - Distorted
G---------------------------------
D---------------------------------
A#---------------------------------REPEAT
F--------18--18--18----16--16--16-
C--------16--16--16----14--14--14-
G---------0----0---0---0---0----0-
 
G-----------------------------------------------
D-----------------------------------------------
A#-----------------------------------------------
F--------16--17--16--17--16--17--16--17--16-----
C--------15--15--15--15--15--15--15--15--15-----
G---------0---0----0----0---0----0---0----0---0-
 
Play these two sequences one after the other four times for that distorted bit in the middle of the song.
After this there are a load of sound effects and static, but these tabs hold the basic structure of the song.
 
---
 
the simple version:
 
Em-022002
A#-320003
C-002220
 
also play it as
 
x(10)9(11)xx
999(11)xx
(10)99(11)xx
 
---
 
From: Nicholas Deysher
Date: Wed, 2 Oct 1996 12:49:48 -0400 (EDT)
 
Here is another crazy interpretation of Blow Out for y'all to check out.
 
"Blow Out"
 
-1 & 2 & 3 & 4 &-1 & 2 & 3 & 4 &-1 & 2 & 3 & 4 &-1 & 2 & 3 & 4 &
-----------------------------------------------------------------
-7-----7-7-----7---7---7---5---7-7-----7-7-----7---7---7---5---7-
-5-----5-5-----5---5---5---5---5-5-----5-5-----5---5---5---5---5-
-----------------------------------------------------------------
-7-----7-7-----7---7---7---7---7-7-----7-7-----7---7---7---7---7-
-----------------------------------------------------------------
 
-1 & 2 & 3 & 4 &-1 & 2 & 3 & 4 &-1 & 2 & 3 & 4 &-1 & 2 & 3 & 4 &
-----------------------------------------------------------------
-7-----7-7-----7---7---7---5---7-3-----4-4-----------------------
-5-----5-5-----5---5---5---5---5-5-----7-7-----------------------
-------------------------------5-5-----7-7-----------------------
-7-----7-7-----7---7---7---7---7-4-----6-6-----------------------
-----------------------------------------------------------------
                                           Let Ring_____________
 
-1 & 2 & 3 & 4 &-1
------------------
/9-9-----7--------
---7-----6--------
------------------
------------------
------------------
         Let Ring_
 
Bullet Proof... I Wish I was / Radiohead
---------------------------------------
 
Giriş:
Cm D#maj7 Dm F Cm D#maj7 Dm F F
 
Cm                 D#maj7           Dm          D
Limb by limb and tooth by tooth, tearing up inside of me.
Cm        D#maj7      Dm         F  F
Everyday, everyhour, wish that I... was bullet proof.
 
Cm D#maj7 Dm F
 
Cm      D#maj7     Dm                D
Wax me, mould me, heat the pins and stab them in.
Cm                  D#maj7          Dm          F  D
You have turned me into this, just wish that it... was bullet proof...
 
A# Dm D#add9 D#add9 A# Dm D#add9 A#m/Db
 
  Cm                 D#maj7       Dm            D
So pay me money, and take a shot, lead-fill the hole in me.
Cm               D#maj7               Dm       F  D
I could burst a million bubbles, all surrogate... and bullet proof...
 
A# Dm D#add9 D#add9 A# Dm D#add9 D#add9 A# Dm D#add9 A#m/Db
 
  Cm  D#maj7  Dm  F  A#  D#add9  A#m/Db
 
|-0---0------2---2--3--0----------|
 
|-1---0------3---3--3--3------3---|
 
|-2---0------4---2--0--0------0---|
 
|-2---2------4---0--0--2------0---|
 
|-0---3------2------2--3------1---|
 
|-------------------3-------------|
 
Creep
 
                   G
When you were here before
                         D
Couldn't look you in the eyes
                 C
You look like an angel
                   D#m
Your skin makes me cry
 
                 G
You float like a feather
              B
In a beautiful weather
             C
I wish I was special
                  D#m
You're so fucking special
 
Chorus:
               A#
     But I'm a creep
           D
     I'm a wierdo
                              D#
     What the hell am I doin' here
                    D#m
     I don't belong here
 
I don't care if it hurts
I wanna have control
I wanna perfect body
I want a perfect soul
 
I want you to notice
When I'm not around
 
You're so fuckin' special
I wish I was special....
 
(then something like this...)
oooh... she's running away....she's running...run..run...run..ruuuuun
 
Whatever makes you happy
Whatever you want
You're so fucking special
Wish I was special...
 
HEY. This is and early acoustic version played by Thom which can be found
in
the "My Iron Lung Ep".
The song is in standard tuning and in 4/4 rhythm.
All the chords are Barre chords so you will need to have strengthened your
fingering for these shapes.
 
Intro
 
   Gmaj                            A#sus4
G--3-------------------------------3-----------3------------------|
D--3-------------------------------3-----------3------------------|
A#--4-------------------------------5-----------4------------------|
F--5-------------------------------3-or-x------5------------------|
C--5-------------------------------5-----------5------------------|
G--3-------------------------------3-----------3------------------|
   V . . . V . . ^ V . v . V ^ v ^ V . . ^ V ^ v . . ^ v . V . v ^
   1 . & . 2 . & . 3 . & . 4 . & . 1 . & . 2 . & . 3 . & . 4 . & .
 
   D                               Dsus4
G--7-------------------------------7-----------7------------------|
D--7-------------------------------7-----------7------------------|
A#--8-------------------------------9-----------8------------------|
F--9-------------------------------7-or-x------9------------------|
C--9-------------------------------9-----------9------------------|
G--7-------------------------------7-----------7------------------|
   V . . . V . . ^ V . v . V ^ v ^ V . . ^ V ^ v . . ^ v . V . v ^
   1 . & . 2 . & . 3 . & . 4 . & . 1 . & . 2 . & . 3 . & . 4 . & .
 
   D#                               D#sus4
G--8-------------------------------8---------------8---------------|
D--8-------------------------------8---------------8---------------|
A#--9-------------------------------10--------------9---------------|
F--10------------------------------8-or-x----------10--------------|
C--10------------------------------10--------------10--------------|
G--8-------------------------------8---------------8---------------|
   V . . . V . . ^ V ^ v . V . v ^ V . v . V . v ^ V ^ v . V . v ^
   1 . & . 2 . & . 3 . & . 4 . & . 1 . & . 2 . & . 3 . & . 4 . & .
 
   D#m
G--8--------------------------------------------------------------|
D--8--------------------------------------------------------------|
A#--8--------------------------------------------------------------|
F--10-------------------------------------------------------------|
C--10-------------------------------------------------------------|
G--8--------------------------------------------------------------|
   V . . . V . v ^ V . . . V . v ^ V . v . V . v ^ V . v . V . v ^
   1 . & . 2 . & . 3 . & . 4 . & . 1 . & . 2 . & . 3 . & . 4 . & .
                                                  When you were here be-
Verse starts:
   Gmaj
G--3-----------------------3-------3------------------------------|
D--3-----------------------3-------3------------------------------|
A#--4-----------------------5-------4------------------------------|
F--5-----------------------3-------5------------------------------|
C--5-----------------------5-------5------------------------------|
G--3-----------------------3-------3------------------------------|
   V . . . V . v ^ V ^ v ^ V ^ v ^ V . v . V . v ^ V . v . V ^ v ^
   1 . & . 2 . & . 3 . & . 4 . & . 1 . & . 2 . & . 3 . & . 4 . & .
  -fore                                        couldn't look you in the-
 
   D
G--7-----------------------7-------7------------------------------|
D--7-----------------------7-------7------------------------------|
A#--8-----------------------9-------8------------------------------|
F--9-----------------------7-------9------------------------------|
C--9-----------------------9-------9------------------------------|
G--7-----------------------7-------7------------------------------|
   V . . . V . v ^ V ^ v ^ V ^ v ^ V . v . V . v ^ V . v . V ^ v ^
   1 . & . 2 . & . 3 . & . 4 . & . 1 . & . 2 . & . 3 . & . 4 . & .
  -eye                                         you're just like an-
 
   D#
G--8-----------------------8-------8------------------------------|
D--8-----------------------8-------8------------------------------|
A#--9-----------------------10------9------------------------------|
F--10----------------------8-------10-----------------------------|
C--10----------------------10------10-----------------------------|
G--8-----------------------8-------8------------------------------|
   V . . . V . v ^ V ^ v ^ V ^ v ^ V . v . V . v ^ V ^ v ^ V ^ v ^
   1 . & . 2 . & . 3 . & . 4 . & . 1 . & . 2 . & . 3 . & . 4 . & .
  -angel                                       your skin makes me -
 
   D#m
G--8-----------------------8-------8------------------------------|
D--8-----------------------8-------8------------------------------|
A#--8-----------------------10------8------------------------------|
F--10----------------------8-------10-----------------------------|
C--10----------------------10------10-----------------------------|
G--8-----------------------8-------8------------------------------|
   V . . . V . v ^ V ^ v ^ V ^ v ^ V . v . V . v ^ V . v . V ^ v ^
   1 . & . 2 . & . 3 . & . 4 . & . 1 . & . 2 . & . 3 . & . 4 . & .
  -cry                                         You float like a -
 
(repeat verse chords)
feather
In a beautiful world
I wish I was special
You're so VERY-
 
   D#m
G--8-----------------------8-------8------------------------------|
D--8-----------------------8-------8------------------------------|
A#--8-----------------------10------8------------------------------|
F--10----------------------8-------10-----------------------------|
C--10----------------------10------10-----------------------------|
G--8-----------------------8-------8------------------------------|
   V . . . V . v ^ V ^ v ^ V ^ v ^ V . v . V . v ^ V . v . V ^ v ^
   1 . & . 2 . & . 3 . & . 4 . & . 1 . & . 2 . & . 3 . & . 4 . & .
  -special                                     but I'm  aa       cr-
 
CHORUS Begins (same chords as verse):
  Gmaj
G--3-----------------------3-------3------------------------------|
D--3-----------------------3-------3------------------------------|
A#--4-----------------------5-------4------------------------------|
F--5-----------------------3-------5------------------------------|
C--5-----------------------5-------5------------------------------|
G--3-----------------------3-------3------------------------------|
   V . v . V . v ^ V ^ v ^ V ^ v ^ V . v . V . v ^ V ^ v ^ V ^ v ^
   1 . & . 2 . & . 3 . & . 4 . & . 1 . & . 2 . & . 3 . & . 4 . & .
  -rreep                                           I'm aa        W-
 
(same as verse chords)
D      Dsus4 B
Weirdo
                         D#    D#sus4 C
What the hell am I doing here?
          D#m        D#sus4 D#m
I don't belong here
 
I don't care if it hurts
I want to have control
I want a perfect body
I want a perfect soul
I want you to notice when I'm not around
You're so very special
I wish I was special
 
But I'm a creep
I'm a weirdo
What the hell am I doing--
   Cmaj              Csus?    Cmaj
G--8-----------------------8-------8-------------------------------|
D--8-----------------------8-------8-------------------------------|
A#--9-----------------------9-------9-------------------------------|
F--10----------------------12------10------------------------------|
C--10----------------------10------10------------------------------|
G--8-----------------------8-------8-------------------------------|
   V . v . V . v ^ V ^ v ^ V ^ v ^ V . v . V . v ^ V ^ v ^ V ^ v ^
   1 . & . 2 . & . 3 . & . 4 . & . 1 . & . 2 . & . 3 . & . 4 . & .
 --here?   (*take note of the chord here*)      I don't be-
 
   D#m
G--8-----------------------8-------8------------------------------|
D--8-----------------------8-------8------------------------------|
A#--8-----------------------10------8------------------------------|
F--10----------------------8-------10-----------------------------|
C--10----------------------10------10-----------------------------|
G--8-----------------------8-------8------------------------------|
   V . v . V . v ^ V ^ v ^ V ^ v ^ V ^ v ^ V ^ v ^ V ^ v ^ V ^ v ^
   1 . & . 2 . & . 3 . & . 4 . & . 1 . & . 2 . & . 3 . & . 4 . & .
  -long here                        whoah          ooh            -
 
BRIDGG/INTERLUDE is same chords as verse and chorus but its kinda played like this:
 
   Gmaj              A#sus4    Gmaj                   A#sus4   Gmaj
G--3-----------------3-------3-----3-----------------3-------3----|
D--3-----------------3-------3-----3-----------------3-------3----|
A#--4-----------------5-------4-----4-----------------5-------4----|
F--5-----------------x-------5-----5-----------------x-------5----|
C--5-----------------5-------5-----5-----------------5-------5----|
G--3-----------------3-------3-----3-----------------3-------3----|
   V . v . V . v ^ V ^ v ^ V ^ v ^ V . v . V . v ^ V ^ v ^ V ^ v ^
   1 . & . 2 . & . 3 . & . 4 . & . 1 . & . 2 . & . 3 . & . 4 . & .
-Sheeeeeeeeeeeeeeeeeeeeeeeeee's    r -u - nning       out
 
B and Dsus4 (sometimes no Bsus4)
--agaaaaaaeeaaaiiiinn....--
 
   Cmaj              Csus?    Cmaj
G--8-----------------8-------8-----8------------------------------|
D--8-----------------8-------8-----8------------------------------|
A#--9-----------------9-------9-----9------------------------------|
F--10----------------12------10----10-----------------------------|
C--10----------------10------10----10-----------------------------|
G--8-----------------8-------8-----8------------------------------|
   V . v . V . v ^ V ^ v ^ V ^ v ^ V . v . V . v ^ V ^ v ^ V ^ v ^
   1 . & . 2 . & . 3 . & . 4 . & . 1 . & . 2 . & . 3 . & . 4 . & .
   She's ------                    running              out....
 
D#m                     G etc.....B etc...C etc.....D#m etc..
She runs runs runs  RRUUUUUUUUUUNS       RUUUUUUUUNS
 
(play same as the original verse riff)
Whatever makes you happy
Whatever you want
You're so VERY special
i wish i was special
but i'm a cr-
 
FINAL CHORUS (the samechords as verse):
  Gmaj
G--3-----------------------3-------3------------------------------|
D--3-----------------------3-------3------------------------------|
A#--4-----------------------5-------4------------------------------|
F--5-----------------------x-------5------------------------------|
C--5-----------------------5-------5------------------------------|
G--3-----------------------3-------3------------------------------|
   V . v . V . v ^ V ^ v ^ V ^ v ^ V . v . V . v ^ V ^ v ^ V ^ v ^
   1 . & . 2 . & . 3 . & . 4 . & . 1 . & . 2 . & . 3 . & . 4 . & .
  -rreep                                           I'm aa        W-
 
(same as verse chords)
D      Dsus4 B
Weirdo
                         D#    D#sus4 C
What the hell am I doing here?
          D#m        D#sus4 D#m
I don't belong here
          Gmaj
i don't belong here.
 
That's it i hope you enjoy it.  I tried to make it as detailed as possible..
and its annoying... but here it is.. i got tired of typeing. HAVG FUN! :)
 
Not: Şarkı Akustik içindir.
 
RADIOHEAD: EXIT MUSID#
 
 Dm  D5  A  C   G   A#   D#   Cm
 
 2   2   2   0   0   3   0   0
 3   2   2   2   0   0   1   1
 4   4   3   2   1   0   0   2
 4   4   4   2   2   0   2   2
 2   2   4   0   2   2   3   0
 x   x   2   x   0   3   3   x
 
 
Intro (Twice)
 
e--2--2--2--2--2--2--2--2--2--2--2--2--2
D--3--3--3--3--3--3--2--2--3--3--3--3--3
A#--4--4--4--4--4--4--4--4--2--2--4--4--4
F--4--4--4--4--4--4--4--4--4--4--4--4--4
C--2--2--2--2--2--2--2--2--2--2--2--2--2
G--x--x--x--x--x--x--x--x--x--x--x--x--x
 
Verse 1:
 
Dm            A         C              E
Wake from you sleep, the drying of your tears
 
Dm         A         D5  Dm
Today, we escape, we escape.
 
Dm           A         C                E
Pack and get dressed, before your father hears us
 
Dm         A           D5  Dm
Before all hell breaks loose.
 
Bridge:
 
Cm          G
Breath keep breathing
 
      Dm    A#    A
Don't loose your nerve
 
Cm          G
Breath keep breathing
 
  Dm       A#    F#
I can't do this alone
 
Verse 2:
 
Dm        A      C               E
Sing us a song, a song to keep us warm
        Dm     A             D5  Dm
There's such a chill, such a chill
 
Chorus:
 
Dm               A        G
You can laugh, a spineless laugh
 
A#            D#         F#
We hope your rules and wisdom choke you
 
Dm          A      C           E
Now, we are one, in everlasting peace
 
   Dm            A              D5  Dm
We hope that you choke, that you choke.
 
                C                      G        C/A                    Cmaj7  Fsus2
VERSG 1:                  Her green plastic watering can, for her fake Chinese r
ubber plant
                              C    Fsus2
                In the fake plastic earth
                C                           G      C/A                   Cmaj7  Fsus2
                 That she bought from a rubber man, in a town full of rubber   plans
                        C       Fsus2
                To get rid of itself
 
                             Fsus2/D           C
COURUS 1:                It wears her out, it wears her out
                             Fsus2/D           C
                It wears her out, it wears her out
 
                C                      G     C/A               Cmaj7  Fsus2
VERSG 2:                  She lives with a broken man, a cracked polystyrene   m
an
                           C          Fsus2
                Who just crumbles and burns
                C                   G  C/A                 Cmaj7   Fsus2
                 He used to do surgery, for girls in the eigh  -  ties
                            C     Fsus2
                But gravity always wins
 
                                 Fsus2/D           C
COURUS 2:                And it wears him out, it wears him out
                             Fsus2/D   C
                It wears him out, it wears____
 
                C                      G       C/A                    Cmaj7   Fsus2
VERSG 3:                  She looks like the real thing, she tastes like the rea
l    thing
                          C    Fsus2
                My fake plastic love
                C                        G    C/A                        Cmaj7   Fsus2
                 But I can't help the feeling, I could blow through the cei  -  ling
                            C     Fsus2
                If I just turn and run
 
                                Fsus2/D          C
COURUS 3:                And it wears me out, it wears me out
                            Fsus2/D    C
                It wears me out, it wears me out
 
                                Fsus2                         A
OUTRO:                And if I could be who you wanted, if I could be who you wanted
                   Fsus2         C
                All the time, all the time
 
                | Fsus2  | C      | Fsus2  | C(1)   |
 
Albüm:The Bends
Fake Plastic Trees/RADİOHEAF
 
C                            Am
Her green plastic watering can
                                F
For her fake chinese rubber plant
              C     D
In the fake plastic earth
C                               Am
That she bought from a rubber man
                            D
In a town full of rubber plans
        C      D
To get rid of itself
 
             Dm
It wears her out..
             A
It wears her out..
              Dm
It wears her out..
             A
It wears her out
 
C                         Am
She lives with a broken man
                         F
A cracked polystyrene man
           C           D
Who just crumbles and burns
 C                   Am
He used to do surgery
                      F
For girls in the eighties
             C      F
But gravity always wins
 
                 Dm
And it wears him out..
              A
It wears him out..
              Dm
It wears him out..
       A
It weeeeeaaaars
 
 C                            Am
She looks like the real thing
                            D
She tastes like the real thing
           C     D
My fake plastic love
 C                         Am
But I can't help the feeling
                        D
I could blow through the ceiling
            C        D
If I just turn and run
                 Dm
And it wears me out
            A
It wears me out
             Dm
It wears me out
             A
It wears me out
                Dm
And if I could be who you wanted
            A
If I could be who you wanted
        Dm
All the time..
        C
All the time..
 
C  Am F C
 
C - x02220
Am -233222
F - xx0232
Dm - x24432
 
D/A        C        G        G
 
D/A        C        G        G
 
D/A                          C                               G             E
two jumps in a week i bet you think that's pretty clever don't you boy.
 
D/A                       C                              G                 E
flying on your motorcycle. watching all the ground beneath you drop.
 
      D/A                           C                        G             E
you'd kill yourself for recognition. kill yourself to never ever stop.
 
    D/A                         C                         G                E
you broke another mirror. you're turning into something you are not.
 
              D/A  C                G          G
 
don't lead me high,    don't lead me dry,
 
              D/A  C                G          G
 
don't lead me high,    don't lead me dry.
 
D/A        C        G        G
 
D/A                      C                          G                      E
drying up in conversation you will be the one who cannot talk.
 
D/A                             C                                         G
E
all your insides fall to pieces. you just sit there wishing you could still
make love.
 
D/A                                      C                             G
E
they're the ones who'll hate you when you think you've got the world all
sussed out.
 
D/A                                 C                        G             E
they're the ones who'll spit at you. you will be the one screaming out.
 
              D/A  C                G          G
 
don't lead me high,    don't lead me dry,
 
              D/A  C                G          G
 
don't lead me high,    don't lead me dry.
 
D/A        C        G        G
 
D/A        C        G        G
 
         D/A                         C     G                        E
it's the best thing that you ever had.  the best thing that you ever ever had.
 
         D/A                         C    G                           E
it's the best thing that you ever had. the best thing that you had has gone
away.
 
              D/A  C                G          G
 
don't lead me high,    don't lead me dry,
 
              D/A  C                G          G
 
don't lead me high,    don't lead me dry.
 
              D/A  C     G     E
don't lead me high,
 
              D/A  C                 E
don't lead me high,    don't leave me dry.
 
JUST
 
Intro:
e------------------------------------------------------------------------------
D--5---5--------8--8-8-7--7-7-7-7-x-10-10-10-----------------------------------
A#--5---5-x-x-x--8--8-8-7--7-7-7-7-x-10-10-10-----------------------------------
F--5---5-x-x-x--8--8-8-7--7-7-7-7-x-10-10-10----------------------------------
C--3---3-x-x-x--6--6-6-5--5-5-5-5-x-8--8--8------------------------------------
G------------------------------------------------------------------------------
 
Riff 1-----------------------------------------------------------------------]
 
e-----------------------------------------------------10-11---13-14---16-17--\-
D------------------------------------------------------------------------------
A#--x-x-x-x----5--5--7--8---10-11---13--14----16--17---7--8----10-11---13-14--\-
F--x-x-x-x-x2------------------------------------------------------------------
C--x-x-x-x----3--3--5--6---8--9----11--12----14--15----------------------------
G------------------------------------------------------------------------------
 
Verse Gb G#(8ft) Cm B
 
e------------------------------------------------------------------------------
D------------------------------------------------------------------------------
A#--- Cm ---- B ----------14--15--17--16--17--19-----------14--15--17--7--8--10
F-------------------------15----------17-------------------15----------8-------
C------------------------------------------------------------------------------
G-------------------------13----------15-------------------13----------6-------
 
.5 .5
 
e------------------------------------------------------------------------------
D------------------------------------------------------------------------------
A#----5--7-7/----5-------5--7--7/-----5----4------5------8/---------------------
F--7----------7------6------------6---------5------4---------------------------
C---------------------------------------------5------4-------------------------
G------------------------------------------------------------------------------
 
Chorus:
 
Riff 2----------------------------------------]
 
e-----------------0------0----------------0------------------------------------
D-------------------------------------------1----------------------------------
A#--9---9---\---------3----------------------------- Riff 2 -- Riff 1 ----------
F--10--10--\--4------------3--3---3----3---------------------------------------
C--10--10--\--4------------3--3---3----3---------------------------------------
G--8---8---\--2------------1--1---1----1---------------------------------------
 
T T T T
 
2nd Time
 
Trem.____________________________________________]
 
e------------------------------------------------------------------------------
D--5----7--8---10--11-------12----10---8----6---5------------------------------
A#------------------13/------14/---12/--10/--8/--7/-----------------------------
F------------------------------------------------------------------------------
C------------------------------------------------------------------------------
G------------------------------------------------------------------------------
 
(Thom)Gtr.1
 
Part 1______________________________________________]
 
e--------------------------------------------------------------------------------------------
D--------------------------------------------------------------------------------------------
A#-17--17--17-16--14-14-14-x-x--17--17--17-15--13-13-13-12/13-12-12-12-x-x-10/12-10-10-10-x-x-
F--------------------------------------------------------------------------------------------
C-15--15--15-14--12-12-12-x-x--15--15--15-13--11-11-11-10/11-10-10-10-x-x--8/10--8--8--8-x-x-
G--------------------------------------------------------------------------------------------
 
Repeat part 1
 
(Jon) Gtr.2
 
Part 2_____________________________________________]
 
e--------------------------------------------------------------------------------------------
D-17--17--17-15--13-13-13-x-x--16--16--16-15--13-13-13-11/13-11-11-11-x-x-13/15-13-13-13-x-x-
A#--------------------------------------------------------------------------------------------
F-14--14--14-12--10-10-10-x-x--13--13--13-12--10-10-10--8/10--8--8--8-x-x-10/12-10-10-10-x-x-
C--------------------------------------------------------------------------------------------
G--------------------------------------------------------------------------------------------
 
Repeat part 2
 
-pick scrape-
 
e------------------------------------------------------------------------------
D------------------------------------------------------------------------------
A#-4-4-4-4-3-3-3-3-2------------------------------------------------------------
F-5-5-5-5-4-4-4-4-3------------------------------------------------------------
C-5-5-5-5-4-4-4-4-3-----------------------------------------------^^^^^^^^^^^^-
G-3-3-3-3-2-2-2-2-1-----------------------------------------------^^^^^^^^^^^^-
 
.5
 
e------------------------------------------------------------------------------
D--12-11-10--------------------------------------------------------------------
A#-----------12/--11-10-------10-12-10--10-12-10------- x2 --- Chorus ----------
F----------------------10h12---------------------------------------------------
C------------------------------------------------------------------------------
G------------------------------------------------------------------------------
 
(pitch shifter up one octave) (pitch shifter up two octaves)
 
Trem.______________________________________________________
 
e--8---10-11---13-14---16-17-----8---10-11---13-14---16-17----20-(3bars)--17\--
D------------------------------------------------------------------------------
A#--5---7--8----10-11---13-14-----5---7--8----10-11---13-14---------------------
F------------------------------------------------------------------------------
C------------------------------------------------------------------------------
G------------------------------------------------------------------------------
 
e------------------------------------------------------------------------------
D--x--4--x--4----x-x----------------------------------------8-8-8-8--8-8-8-8---
A#--x--3--x--3----x-x-----8--8-8-8-8--8-8--8-8-8--8-8--8--8--8-8-8-8--8-8-8-8---
F--x--2--x--2----x-x-----------------------------------------------------------
C--x--3--x--3----x-x-----------------------------------------------------------
G------------------------------------------------------------------------------
 
D# Db5 C5 Gb5
 
Riff 3---------------------------------------------------------]
e------------------------------------------8/\p6-------------------------------
D----------------------------------------8--------8/\p6--7-5-------------------
A#-8p5------5-8p5-----5-8p5-----5-8p5-------------------------7-----------------
F-----8-/--------8/--------8/--------8/----------------------------------------
C------------------------------------------------------------------------------
G------------------------------------------------------------------------------
 
.5-----------------]
e------------------------------------------------------------------------------
D---------------------------------------6/-6-6-6-6-6-6-6-6-6-------------------
A#--8p5-----5-8p5-----5-8p5-----5-8p5------------------------------ Riff 3------
F------8/--------8/--------8/--------8/----------------------------------------
C------------------------------------------------------------------------------
G------------------------------------------------------------------------------
 
e------------------------------------------------------------------------------
D------------------------------------------------------------------------------
A#--8p5------8p5-----5--8p5-----------------------------------------------------
F------8/-------8/---------8/---\sl.-------------------------------------------
C------------------------------------------------------------------------------
G------------------------------------x-----------------------------------------
 
------------------------------------------------------------------------------------------------------
 
Unless stated otherwise, chords are played by guitar 1, and the
tabbed parts by guitar 2.
 
INTRO
 
  Guitar 1
  --------------------------------------------------------
  -5-5---5---8-8-8-----7---7---7---10-10------------------
  -5-5---5---8-8-8-----7---7---7---10-10------------------
  -5-5---5-x---8-8-x-x-7---7---7-x-10-10------------------
  -3-3---3-x---6-6-x-x-5-5-5-5-5-x-8--8-------------------
  --------------------------------------------------------
 
  Guitar 2
  --------------------------------------------------------
  --------------------------------------------------------
  -------------------------------x---x---x---x------------
  -------------------------------x---x---x---x------------
  ---------------------------------x---x---x--------------
  ---------------------------------x---x---x--------------
    trem picked
  --------------------------7-8--10-11--13-14---16-17\----
  --------------------------------------------------------
  --5---7-8--10-11--13-14---4-5---7-8---10-11---13-14\----
  --------------------------------------------------------
  --3---5-6---8-9---11-12---------------------------------
  --------------------------------------------------------
 
VERSG 1
 
   C5                      B5
  Can't get the stink off, he's been hanging round for days
 
   Gb      G#
  --------------------------------------------------------
  -8-9-11--10-11-13~--------------------------------------
  -8-------10-12-14---------------------------------------
  --------------------------------------------------------
  --------------------------------------------------------
  --------------------------------------------------------
 
   C5                 B5
  Comes like a comet, suckered you but not your friends
 
   Gb      Db
  -3-4-6--------------------------------------------------
  -4-------3--4-6-----------------------------------------
  ---------3--5-7-----------------------------------------
  --------------------------------------------------------
  --------------------------------------------------------
  --------------------------------------------------------
 
   One day he'll get to you.. ..      ho -     ly    cow
  --------------------------------------------------------
  -----.------------------.-------------------------------
  ---5-7--7b9---5~------5-7-7b8---5---4--------5-----7b9--
  -7----------7-------7---------6-------5--------4--------
  ----------------------------------------5--------4------
  --------------------------------------------------------
 
CHORUS 1
 
  You do it to yourself you do that's why it really hurts
  ----------------------------0----1------------------0---
  -----------------5---------------1--------------------1-
  -----------------5--------3---3--2----------------------
  -----------------5--------4------3----------------------
  -----------------3--------4------3----------------------
  --------------------------2------1----------------------
 
REPEAT INTRO
 
VERSG 2 - Play the same as verse 1 but with straight A and
          G# chords.
 
CHORUS 2
 
BRIDGG
 
   Gm   F      C   D#   Gm              F          C     D#
  --------------------------(12)--------------------------
  -5--7-8--10--10b11~--12--------10----8-----7----5-------
  ---------------------14b16-----12b14-10b12-9b11-7b9r8b9-
  --------------------------------------------------------
  --------------------------------------------------------
  --------------------------------------------------------
 
    Cm                     B                Gb
  --------------------------------------------------------
  --5--5-----3---1-1-------4--4----3---1-1----------------
  --5--5--5--4-x-2-2-x-x---5--5-x--3-x-1-1---3h5-3--3-----
  -------------------------------------------5h6-5--5-x-x-
  --------------------------------------------------------
  --------------------------------------------------------
 
    Db              Cm                   B
  --1/3-1---1---------------------------------------------
  --1/3-1-1-1--x-x--5--5----3---1-1------4-4---3----1-1---
  -------------x-x--5--5--x-4-x-2-2-x-x--5-5-x-3--x-1-1-x-
  --------------------------------------------------------
  --------------------------------------------------------
  --------------------------------------------------------
 
    guitar 1 & 2 (with distortion)
  --------------------------------------------------------
  --------------------------------------------------------
  ------------------.-------------------------------------
  --5-5-5-5-4-4-4-4-3-------------------------------------
  --5-5-5-5-4-4-4-4-3-------------------------------------
  --3-3-3-3-2-2-2-2-1-------------------------------------
 
CHORUS 3 - Instrumental, with pickscrape noise and fill,
 
  guitar 3 (with distortion)
  --------------------------------------------------------
  ----------------1----1----------------------------------
  --5-4---3-------2h3--2----------------------------------
  --------------------------------------------------------
  --------------------------------------------------------
  --------------------------------------------------------
 
REPEAT INTRO
 
REPEAT INTRO - guitar 2 up 2 octaves (whammy pedal?)
 
OUTRO - guitar 2 sustains last note of previous part
 
  guitar 1 plays C, Bb, Am, Gb
 
  guitar 2 (clean)
  --------------------------------------------------------
  --------------------------------------------------------
  --x--x--x--8------8~----x-x----8------8-----------------
  --x-----x--8------8-----x-x----8------8-----------------
  -----------7--x-x-7----------x-7--x-x-7-----------------
  -----------8------8------------8------8-----------------
 
OUTRO SOLO - guitar 2 (w/ distortion)
 
  --------------------------------------------------------
  --------------------------------------------------------
  --------------------------------------------------------
  ----------.-------.----.----------.-------.----.--------
  -(10b)13-13---13-13---13------13-13---13-13---13--------
  --------------------------------------------------------
 
  --------------------------------------------------------
  --------------------------------------------------------
  --------------------------------------------------------
  ----------.-------.----.--------------------------------
  ------13-13---13-13---13------13-13-13-13-13-13-13------
  --------------------------------------------------------
 
  --------------------------------------------------------
  --------------------------------------------------------
  --------------.------------------.------------------.---
  -(10b)13r10-8-10---10-10b13r10-8-10---10-10b13r10-8-10--
  --------------------------------------------------------
  --------------------------------------------------------
 
  -------------------8b10r8-6-----------------------------
  ----------------------------10b11r10-8------------------
  ---------------.-----------------------8----------------
  -10-10b13r10-8-10------------------------10-------------
  --------------------------------------------------------
  --------------------------------------------------------
 
  --------------------------------------------------------
  --------------------------------------------------------
  --------------.------------------.------------------.---
  -(10b)13r10-8-10---10-10b13r10-8-10---10-10b13r10-8-10--
  --------------------------------------------------------
  --------------------------------------------------------
 
  --------------------------------------------------------
  --------------------------------------------------------
  ---------------.---10b11-11-11-11-11-11-11-11-11-11-----
  -10-10b13r10-8-10---------------------------------------
  --------------------------------------------------------
  --------------------------------------------------------
 
  --------------------------------------------------------
  --------------------------------------------------------
  --------------.------------------.------------------.---
  -(10b)13r10-8-10---10-10b13r10-8-10---10-10b13r10-8-10--
  --------------------------------------------------------
  --------------------------------------------------------
 
  -------------------8b10r8-6-----------------------------
  ----------------------------10b11r10-8------------------
  ---------------.-----------------------8----------------
  -10-10b13r10-8-10------------------------10-------------
  --------------------------------------------------------
  --------------------------------------------------------
 
  --------------------------------------------------------
  --------------------------------------------------------
  --------------.------------------.----------------------
  -(10b)13r10-8-10---10-10b13r10-8-10---10-10b13r10-8b10\-
  --------------------------------------------------------
  --------------------------------------------------------
  --------------------------------------------------------
 
                            USEF CHORDS
 
  C    577655    C5   577xxx    Db   x1333x    D#    x3555x
  F    x5777x    Gb   x6888x    Gm   022000    G#    133211
  A7  2443x0    A#    3x0033    B   466544    B5  466xxx
 
------------------------------------------------------------------------------------------------------
 
an addition...
 
--5---------------------4------------------------------6-------8
--5---------------------4--------------------------8-9---10-11--
--5---------------------5--------------------------8-----10-----
--7---------------------6--------------------------8-----10-----
--7---------------------6--------------------------6-----8------
--5---------------------4---------------------------------------
 
Can't get the stink off, he's been hanging round for days
 
--5----------------4-----------------------------6------
--5----------------4-------------------------8-9-------6
--5----------------5-------------------------8-----7-8--
--7----------------6-------------------------8-----8----
--7----------------6-------------------------6-----8----
--5----------------4-------------------------------6----
 
Comes like a comet, suckered you but not your friends
 
----------------------------------------------------------
-------.------------------.-------------------------------
-----5-7--7b9---5~------5-7-7b8---5---4--------5-----8b9--
---7----------7-------6---------6-------5--------4--------
------------------------------------------5--------4------
----------------------------------------------------------
 
One day he'll get to you.. ..      ho -     ly    cow
 
        G C F A# D G
 
Cm        x 0 2 2 1 0
Cm/A        2 x 0 2 1 0
Gm        0 2 2 0 0 x
Gm/A        2 x 0 0 x x
G7        0 2 0 1 0 x
F*        x 3 3 2 1 x
F#*        x 4 4 3 2 x
A#        3 2 0 0 0 3
G*        x 5 5 4 3 x
G**        0 2 0 0 0 3
A#/A        2 x 0 0 0 3
D#        x 3 2 0 1 0
D#/D        x 3 0 0 1 x
F        x x 0 2 3 2
D*        x 5 4 0 3 x
Dm        2 2 4 4 3 2
 
Intro:
 
Cm Cm/A Gm Gm/A A#
Cm F* Gm Gm/A A#
Cm F A# A#/A D# D#/D
Cm Dm F
 
Cm Cm/A  Gm  Gm/A A#       Cm
        Karma police, arrest this man
 
    F*       Gm
he talks in maths
 
Gm/A  A#            Cm
        he buzzes like a fridge
 
      F      A#      D# D#/D Cm   Dm   D
he's like a detuned ra__dio
 
Cm Cm/A  Gm  Gm/A A#       Cm
        Karma police, arrest this girl
 
     F*     Gm
her hitler hairdo
 
Gm/A  A#        Cm
        is making me feel ill
 
    F         A#         D# D#/D  Cm   Dm   D
and we have crashed her pa_rty
 
 D#       D*         G*     F#*
This is what you'll get
 
 D#       D*         G*     F#*
this is what you'll get
 
 D#       D*         G*            Dm        D#     Dm   D
this is what you'll get, when you mess with us
 
Cm Cm/A  Gm   Gm/A  A#          Cm
        Karma police, I've given all I can
 
     F*    Gm
it's not enough
 
Gm/A   A#          Cm
        I've given all I can
 
      F         A#      D#  D#/D  Cm   Dm   D
but we're still on the payro__ll
 
 D#       D*         G*     F#*
This is what you'll get
 
 D#       D*         G*     F#*
this is what you'll get
 
 D#       D*         G*             Dm      D#     Dm   D
this is what you'll get, when you mess with us
 
   Dm       F      A#   G** F     A#    G** F     G7
And for a minute there, I lost myself, I lost myself
 
Dm          F      A#   G** F     A#    G** F     G7
and for a minute there, I lost myself, I lost myself
 
Dm   F    A#  G** F    A#  G** F   G7
 
Dm          F      A#   G** F     A#    G** F     G7
and for a minute there, I lost myself, I lost myself
 
Dm           F      A#   G** F     A#    G** F     G7
just for a minute there, I lost myself, I lost myse__lf
 
End with a Dm
 
intro:Am, Cm/F#,Em,A#                      Cm/F#:2 0 2 2 1 0
Am, Cm/F#, Em, G, Am,                     A#/F#: 2 0 0 0 3 3
F                                         D#/B:x 2 0 0 1 0
G,A#/F#, C, D#/B, Am, Bm, F                 E7: 0 2 0 1 0 0
                                          Bm:x 2 4 4 3 2
Cm  Cm/A    Gm
Kar_ma        police,
A#                        Cm
arrest this man,
  Cm/A    Gm
he talks in maths,
   A#                        Cm
he buzzles like a fridge
        F  A#            D#  D#/D  Cm  Dm  D
he' s like a detuned ra_di___o
 
Cm  Cm/A  Gm
Kar_ma        police,
    A#                  Cm
arrest this girl,
      Cm/A  Gm
her hitler    hairdo,
    A#                         Cm
is making me feel ill,
       F           A#                           D#  D#/D  Cm  Dm  D
and we have crashed her par_ty__.
 
D#          F                A#    Dm
This is  what you' ll get,
D#          F                A#    Dm
this is  what you' ll get,
D#          F                A#    Dm
this is what you' ll get,
                Dm           D#   Dm  D
when you mess with us...
 
Cm   Cm/A     Gm
Kar_ma           police
         A#        Cm
I' ve given all I can,
       Cm/A    Gm
It' s not        enough,
        A#       Cm
I' ve given all I can,
      F                 A#       D#  D#/D  Cm  Dm  D
but we' re still on the pay___roll.
 
D#         F                A#   Dm
This is what you' ll get,
D#         F                A#   Dm
this is what you' ll get,
D#         F                G
this is what you' ll get,
              Dm             D#    Dm  D
when you mess with us...
 
Phew, for a minute there,
 
I lost myself   I lost myself
 
Phew, for a minute there,
 
I lost myself   I lost myself.
 
Gm   A    A#  Cm              G#        Gm  F#
KARMA POLICG ARREST THIS MAN, HE TAKLS IN MATHS
   A#                 Cm       F      A#        D#     Am-Bm-D
HG BUZZES LIKG C FRIDGE, HE'S LIKG C DETURNED RADIO
 
Gm    A   A#  Cm          G#         Gm     F#
KARMA POLICG ARREST THIS GIRL, HER HITLER HAIRDO
A#           Cm         F           A#          D#     Am-Bm-D
IS MAKINGMG FEEL ILL, AND WE HAVG CRASHED HER PARTY
 
D#            F       A#    F#
THIS IS WHAT YOU'LL GET
D#            F       A#    F#
THIS IS WHAT YOU'LL GET
D#            F       A#             Dm       D#   Bm-D
THIS IS WHAT YOU'LL GET, WHEN YOU MESS WITH US
 
Gm   A   A#   Cm                    G#     Gm    F#
KARMA POLICE I'VG GIVEN ALL I CAN, IT'S NOT ENOUGH
A#                 Cm       F             A#    D#   Am-Bm-D
I'VG GIVEN ALL I CAN, BUT WE'RE STILL ON THE PAYROLL
 
D#            F       A#    F#
THIS IS WHAT YOU'LL GET
D#            F       A#    F#
THIS IS WHAT YOU'LL GET
D#            F       A#             Dm       D#   Bm-D
THIS IS WHAT YOU'LL GET, WHEN YOU MESS WITH US
 
    Dm     F         A#      F        A#     F       G7
ANF FOR A MINUTE THERE, I LOST MYSELF, I LOST MY SELG#
Dm     F         A#      F        A#     F       G7
FOR A MINUTE THERE, I LOST MYSELF, I LOST MY SELG#
Dm     F         A#      F        A#     F       G7
FOR A MINUTE THERE, I LOST MYSELF, I LOST MY SELG#
Dm     F         A#      F        A#     F       G7
FOR A MINUTE THERE, I LOST MYSELF, I LOST MY SELG#
 
C                               E
Transport, motorways and tram lines
                       Am                         E
Starting and then stopping, taking off and landing
C                                          G                     Am
The emptiest of feelings disappointed people clinging onto bottles and
                      E
When it comes its so so disappointing
 
Dm    C  Dm   C  Dm   Am         }
Let down and hanging around       }
Dm    C  Dm   C  Dm   Am         }
Crushed like a bug in the ground  } Nak.
Dm    C  Dm   C  Dm   Am         }
Let down and hanging around       }
 
C                                           E
Shell smashed, juices flowing wings twitch, legs are going
Dm  Am   Dm          C      G   Dm
Don’t get sentimental, it always ends up drivel
       C                        E
One day I’m going to grow wings
    Dm         Am   Dm            C   G    Dm
A chemical reaction, hysterical and useless hysterical and
 
Nak.
 
C                                       G                  Dm
You know, you know where you are with you, know where you are
Am    Dm            C        Dm                       A
With floor collapses floating, bouncing back and one day
      C              E
I am gonna grow wings
                 Am  Dm            C   G    Dm
A chemical reaction, hysterical and useless hysterical and
 
Nak.
 
Gm       Cm    A#        Dm            Gm
 I'm on a roll, I'm on a roll....this time
 D# A#       Dm         Gm
 I feel my luck could change.
 Gm              Cm
 Kill me stright out??
 A#          Dm         Gm
 Kill me again....with love.
      D#     A#    Dm       Gm
 It's gonna be a glorious day.
 
  [Chorus]
         C          Gm
 Pull me out of the aircrash,
         C          Gm
 Pull me out of the wreck,
             C  Gm                  D#               D7
 Cause I'm your superhero leave you standing on the edge.....
 Gm  +(add G#)
 
  [verse 2]
 Gm      Cm   A#               Dm    Gm
 Another state has called for me by name.
 D#     A#         Dm       Gm
 But I dont have time for them
 Gm        Cm A#  Dm      Gm
 Its gonna be a glorius day
 D# A#       Dm         Gm
 I feel my luck could change
 
  [chorus]                      D#               D7
  [instr. chorus].... leave you standing on the edge....



Rastgele
Bu içerik için hata bildir



Bilgiler
  • Ekleyen: admin,
  • Katkıda bulunanlar:
  • (Profil sayfanızdan akor gönderebilirsiniz)
Yorumlar
Üye girişi yapmanız gerekmektedir